Cky - Testing Chords & Tabs

 

Testing Chords & Tabs

Cky Chords & Tabs

Version: 7 Type: Tab 0 ratings
1 star 2 stars 3 stars 4 stars 5 stars
comments

Testing Tab

---------------------------------------------------------------------------
			     *Testing-CKY*
---------------------------------------------------------------------------
Tabbed by: brandnew161
Email: kgoodwin2@stny.rr.com
****100% correct absolutely NO errors****

Tuning: standard
  Verse
e|-----------------7--|----------------------------10----12--|-------------|
B|---0---7--10--0-----|---0--3--8--0--7--0--5--0------0------|--0-------10-|
G|-----7--------------|--------------------------7-----------|-------------|
D|--------------------|--------------------------------------|----9-8-7----|
A|--------------------|--------------------------------------|-------------|
E|--------------------|--------------------------------------|-------------|
              X4   Sub Chorus                      x8   Chorus
e|----10---12-||---------|-------------------------||----------------------|
B|-------0----||---------|-------------------------||---------x2-----------|
G|--7---------||---------|---2---4/6---------------||-/----------------\---|
D|------------||----0----|-4-----------0-----------||-|-0---^-^--------|---|
A|------------||--2---0--|-----------2------2---2--||-|-2--5-4-0-----0-|---|
E|------------||---------|---------------3----3----||-\-----------2----/---|
[ Tab from: http://www.guitartabs.cc/tabs/c/cky/testing_tab_ver_7.html ]
e|-------------------------------------------|--------|--------|-------|---|
B|----------------------2--------------------|--------|--Sub---|-------|---|
G|----------------4---2---2-------------2----|-Verse--|-Chorus-|-Chorus|---|
D|-------0--4--4----4-------2-------2--------|--x1----|---x8---|---x4--|---|
A|----2------------------------0--4-------0--|--------|--------|-------|---|
E|--3----------------------------------------|--------|--------|-------|---  
   Modulation                 Bridge
e|---------------7--------|----------------------------------|-------------|
B|--0---7--10--0---7--10--|----------------------------------|-------------|
G|----7-------------------|-----------4----------------------|-------------|
D|------------------------|--------1---------6---------------|-------1-4---|
A|------------------------|-----2------------------7-0-6-0-2-|----2--------|
E|------------------------|--4-----------2/4----4------------|--4-------2/4|
    Bridge continued                          End On
e|---------------------||--------|--------|--------------------------------|
B|---------------------||--------|--Sub---|--------------------------------|
G|---------------------||-Chorus-|--Chorus|--------------------------------|
D|--6------2---2----4--||---x2---|----x8--|----0---------------------------|
A|-------7---0----2----||--------|--------|----2---------------------------|
E|----4----------------||--------|--------|--------------------------------|

Symbols
^ =hammer on
/ =slide
Comments