Cky - Testing Chords & Tabs

 

Testing Chords & Tabs

Cky Chords & Tabs

Version: 2 Type: Tab 0 ratings
1 star 2 stars 3 stars 4 stars 5 stars
comments

Testing Tab

   
CKY   “testing”
CKY Volume 2
By Deron Miller
Tabbed by John Houx, Stefan Mammarelli, and Jeff Schorffeide



e--------------------------------------------------------10------12--------------------------10-------12-------------
b--------------10---12-------------------------------------------------------------10---------------------------------
g----------11-----------------12---11---9----------------------------------------------------------------------7-----      A
D---9—12-------9----9—12---9----9----12—9---------9-------9---8---7---------7---------7---------7--------
A------------------------------------------------------------------------------------------------------------------------
E------------------------------------------------------------------------------------------------------------------------

[ Tab from: http://www.guitartabs.cc/tabs/c/cky/testing_tab_ver_2.html ]
e-------------------------------------------------------------------------------------------------------------------------
b------------------------------------------------------------------------------------------------------------------------
g----------------------2----4-6-----------------------------------------------------------------------------------------       B
D-----------------4------------------------------3----------------------------------------------------------------------
A-----2---5---------------------------2---5-------------5-------------------------------------------------------------
E-------------5-------------------------------4------4-----------------------------------------------------------------


e--------------------------------------------------------------------------------------------------------------------------
b--------------------------------------------------------------------------------------------------------------------------
g---------------------------------------------------------------------------4-------4----2---------------------2---------     C
D-----------------------------------------------------------------4------------4-------------2-------------2------------
A----2-----5--4--------------2-----5--4----------------2---5------2---------------------------0----4----------------
E------------------5--2--5----------------5--2--5---3---------------------------------------------------------------5-


Order
A (x4)
B (x8)
C (x2)
A (x1)
B (x8)
C (x4)
     Part that I don’t know yet
C (x4)
B (x8)


Distortion varies throughout song, listen and see.
Comments