Cky - Testing Chords & Tabs

 

Testing Chords & Tabs

Cky Chords & Tabs

Version: 1 Type: Tab 0 ratings
1 star 2 stars 3 stars 4 stars 5 stars
comments

Testing Tab

   
Tuned down 1/2 step (Eb Ab Db Gb Bb Eb)

Intro

----------------------------------------------11----13-------------11---13-----
----------11----13--------------------------------------------11---------------
-------12----------------13----12----10--------------------------------------8-
-10-13-------10----10-13----10----10----13-10----10----10-9-8----8----8----8---
-------------------------------------------------------------------------------
-------------------------------------------------------------------------------

Play x4
[ Tab from: http://www.guitartabs.cc/tabs/c/cky/testing_tab.html ]
-----------------------------------------
-----------------------------------------
--------------3----5/7-------------------
----------5----------------------3-------
-3--6-------------------3--6-----------6-
--------6----------------------4-----4---

-------------------------------------------------------------
-------------------------------------------------------------
---------------------------------------5---5-3-----------3---
-----------------------------------5-----5-----3---3---3-----
-3---6-5-------3---6-5---------3-6---3-----------1---5-------
---------6-3-6---------6-3-6-4-----------------------------6-
Comments