Cky - Suddenly Tragic Chords & Tabs

 

Suddenly Tragic Chords & Tabs

Cky Chords & Tabs

Version: 5 Type: Tab 0 ratings
1 star 2 stars 3 stars 4 stars 5 stars
comments

Suddenly Tragic Tab

   
Cky-Suddenly Tragic
An Answer Can Be Found
Down 1 Step DGCFAD with OCtave
/-slide

 Verse 1  0:05-0:36

d|---------------------------------------------------------|
a|---------------------------------------------------------|
f|----------1---------------------------1------------------|
c|-2---------2-4-2--2-----1--4-2----------2-4-2---2-4/6-6-6|
g|--4-2-4-4-------0---0-2---2---4-2-4-4---------0----------|
D|---------------------------------------------------------|

0:36-0:51
d|---------------------------------------------------|
a|---------------------------------------------------|
d|---------------------------------------------------|
c|-------------------------2---------------4-2-------|
g|-6-x-4-x-2-4-6-4---2-4-6---4-2-4-4-4-4-4-----4-2-4-|
D|-----------------4---------------------------------|
[ Tab from: http://www.guitartabs.cc/tabs/c/cky/suddenly_tragic_tab_ver_5.html ]
0:51-1:06
d|---------------------------------------------------------|
a|---------------------------------------------------------|
f|----------1---------------------------1------------------|
c|-2---------2-4-2--2-----1--4-2----------2-4-2---2-4/6-6-6|
g|--4-2-4-4-------0---0-2---2---4-2-4-4---------0----------|
D|---------------------------------------------------------|


1:06-1:20
d|---------------------------------------------------|
a|---------------------------------------------------|
d|---------------------------------------------------|
c|-------------------------2---------------4-2-------|
g|-6-x-4-x-2-4-6-4---2-4-6---4-2-4-4-4-4-4-----4-2-4-|
D|-----------------4---------------------------------|

Chorus

d|---------------------------------------------|
a|---------------------------------------------|
d|---------------------------------------------|
c|---------------------------------------------|
g|--------------------------------444444444444-|
D|0-0-0-0-0-0-0-0-0-0-0-0-0-0-0-0--------------|


d|
a|
d|-----------------------------------------|
c|------6-7-6-7---6-7-6-4------------------|
g|-4-4-------------------------------------|
D|-------------4-4---------4-2-2-2-4-2-2-2-|
Comments