Cky - Suddenly Tragic Chords & Tabs

 

Suddenly Tragic Chords & Tabs

Cky Chords & Tabs

Version: 4 Type: Tab 0 ratings
1 star 2 stars 3 stars 4 stars 5 stars
comments

Suddenly Tragic Tab

Song - Suddenly Tragic (CKY)
Tabbed by - Matt Wells (hoganstillsucks@hotmail.com)
17/7/05

I'm not too sure about this, but you can use as a starter I think.

D|---------------------------------------------14b-14p12----14b-14p12-----|
A|-12br-------12-x-12br-------12-12-x-13-x-15v-----------14-----------14v-|
F|------11h12----x------11h12---------------------------------------------|
C|------------------------------------------------------------------------|
G|------------------------------------------------------------------------|
D|------------------------------------------------------------------------|
[ Tab from: http://www.guitartabs.cc/tabs/c/cky/suddenly_tragic_tab_ver_4.html ]
D|---------------------------------------------------------------------------------|
A|-12br-------12-x-12br-------12---------------------------------------------------|
F|------11h12----x------11h12----11b-11p9----11b-11p9------------------------------|
C|----------------------------------------11----------11v-11b-11p9----11b-11p9-----|
G|-----------------------------------------------------------------11----------11v-|
D|---------------------------------------------------------------------------------|

D|-------------------------------(/14)-14b-(14b)-14-12----12-14-12-14-19b-19p17----|
A|-12br-------12-x-12br-------12-----------------------14--------------------------|
F|------11h12----x------11h12---------------------------------------------------18-|
C|---------------------------------------------------------------------------------|
G|---------------------------------------------------------------------------------|
D|---------------------------------------------------------------------------------|

D|-------------------------------23b-21p19p17----------------------------|
A|-12br-------12-x-12br-------12-----------------------------------------|
F|------11h12----x------11h12-----------------18-16h18-------------------|
C|-----------------------------------------------------16-14h16p14-16-14-|
G|-----------------------------------------------------------------------|
D|-----------------------------------------------------------------------|
Comments