Cky - Suddenly Tragic Chords & Tabs

 

Suddenly Tragic Chords & Tabs

Cky Chords & Tabs

Version: 3 Type: Tab 0 ratings
1 star 2 stars 3 stars 4 stars 5 stars
comments

Suddenly Tragic Tab

   
-------------------------------------------------------------------------------
			     SUDDENLY TRAGIC - CKY
-------------------------------------------------------------------------------
Tabbed by: kima


Tuning: DGCFAD
[ Tab from: http://www.guitartabs.cc/tabs/c/cky/suddenly_tragic_tab_ver_3.html ]
D|--------------------------------------------------!--
A|--------------------------------------------------!--
F|--------------------------------------------------!--
C|--2--------------6-----4-----2-----------------4--!--
G|-----4--2--4--4-----4-----4-----4--2--2--6--2-----!--
D|--------------------------------------------------!--

D|--------------------------------------------------!--
A|--------------------------------------------------!--
F|--------------------------------------------------!--
C|--2------------6-----4-----2----4/6--6--6---------!--
G|-----4--2h4-4-----4-----4----4--------------------!--
D|--------------------------------------------------!--


| /  slide up
| \  slide down
| h  hammer-on
| p  pull-off
| ~  vibrato
| +  harmonic
| x  Mute note
===============================================================================
Comments