Cky - Suddenly Tragic Chords & Tabs

 

Suddenly Tragic Chords & Tabs

Cky Chords & Tabs

Version: 1 Type: Tab 0 ratings
1 star 2 stars 3 stars 4 stars 5 stars
comments

Suddenly Tragic Tab

   
Half Step Down Tuning
{Eb,Ab,Db,Gb,Bb,Eb}


The intro riff is played about two times and then you play it 2 more times for the first
verse. The intro riff is also played for the verses throughout the song and at the ending
of the song.
[ Tab from: http://www.guitartabs.cc/tabs/c/cky/suddenly_tragic_tab.html ]
Eb|-----------------------------------------------|
Bb|-----------------------------------------------|
Gb|-----------------------------------------------|
Db|-----------------------------------------------|
Ab|------------------10----8----------------5---8-|
Eb|--/11-11-8-6-8-11----11---11-11-8-6-8--6---6---|

Eb|--------------------------------------|
Bb|--------------------------------------|
Gb|--------------------------------------|
Db|--------------------------------------|
Ab|-------------10----8----------6-8-8-8-|
Eb|-11-8-6-8-11----11---11-11-11---------|
Comments