Cky - Sniped Chords & Tabs

 

Sniped Chords & Tabs

Cky Chords & Tabs

Version: 3 Type: Tab 0 ratings
1 star 2 stars 3 stars 4 stars 5 stars
comments

Sniped Tab

   
-------------------------------------------------------------------------------
			     SNIPED - CKY
-------------------------------------------------------------------------------
Tabbed by: Ian Barr


Intro:
e|-----------------|
B|-----------------|
G|-----------------|
D|-----5-------5---|
A|-5-7---7-5-7---7-|
E|-----------------|

Verses:
e|----------------------------------|
B|----------------------------------|
G|---------------------------101010-|
D|---------------------------101010-|
A|-2-2-2-2-2-2-2-2-2-2-2-2-2-8-8-8--|
E|-0-0-0-0-0-0-0-0-0-0-0-0-0--------|

e|----------------------------------|
B|----------------------------------|
G|----------------------------------|
D|-9-9-9-9-7-7-7-7-4-4-4-4-7-7-7-7--|
A|-7-7-7-7-5-5-5-5-2-2-2-2-5-5-5-5--|
E|----------------------------------|

e|-----------------------------------|
B|-----------------------------------|
G|-----------------------------------|
D|-----------------------------------|
A|-/7-7-7-7-7-7-7-7-7-7-7-7-7-7-5-5--|
E|-/5-5-5-5-5-5-5-5-5-5-5-5-5-5-3-3--|

e|----------------------------|
B|----------------------------|
G|----------------------------|
D|----------------------------|
A|-7-7-7-7-9-9-9-9-10101010-9-|
E|-5-5-5-5-7-7-7-7-8-8-8-8--7-|

Pre-Chorus
e|---------------------------------|---------------------------|
B|---------------------------------|---------------------------|
G|---------------------------------|---------------------------|
D|-6-6-6-6-6-6-6-6-6-6-6-6-6-6-4-4-|-6-6-6-6-4-4-4-4---------4-|
A|-4-4-4-4-4-4-4-4-4-4-4-4-4-4-2-2-|-4-4-4-4-2-2-2-2-6-6-6-6-2-|
E|---------------------------------|-----------------4-4-4-4---|


Chorus
e|-------------------------------------------------|
B|-------------------------------------------------|
G|-----------------------5-----9-------------------|
D|----------------5------------------9-----5-------|
A|-2-2-2-2---2-2----5--7---7-5---7-5---7-5---7-5---|
E|-0-0-0-0---0-0-----------------------------------|

e|-------------------------------------------------|
B|-------------------------------------------------|
G|-5-----9-----------------------------------------|
D|-------------9-----5-----7-----7-----5-----4-----|
A|---7-5---7-5---7-5---7-5---5-3---5-3---5-3---3-5-|
E|-------------------------------------------------|



breakdown/solo:
[ Tab from: http://www.guitartabs.cc/tabs/c/cky/sniped_tab_ver_3.html ]
  Guitar 1:
e|------------------------------------------------------------------|
B|------------------------------------------------------------------|
G|------------------------------------------------------------------|
D|---------------5----------------------9----7----12--11--9--7---5--|
A|-2-2-2-2--2-2----5--7---10------------7----5----10--9---7--5---3--|
E|-0-0-0-0--0-0-----------8-----------------------------------------|
 |Guitar 2:                                                         |
e|------------------------------------------------------------------|
B|-------------------3/---5--------7/8--7---------10--------/12-----|
G|-------------------------------------------7-------------------12-|
D|------------------------------------------------------------------|
A|------------------------------------------------------------------|
E|------------------------------------------------------------------|

  Guitar 1:
e|------------------------------------------------------------------|
B|------------------------------------------------------------------|
G|--------------16---14----------11-----------12--------16--14------|
D|-5------------14---12----------9------------10--------14--12------|
A|-3------------14---12----------9------------10--------14--12------|
E|--------------12---10----------7------------8---------12--10------|
 |Guitar 2:                                                         |
e|------------------------/10-----------10---/12--14/15-14----------|
B|---------7/8--7----------------12---------------------------------|
G|-12---9-----------------/7------------------------------------15--|
D|------------------------------------------------------------------|
A|------------------------------------------------------------------|
E|------------------------------------------------------------------|

  Guitar 1:
e|---------------------------------------------------------------|
B|---------------------------------------------------------------|
G|----------------7----------------16---14-----------11----------|
D|-12--11--9--7---5----------------14---12-----------9-----------|
A|-10--9---7--5---3----------------14---12-----------9-----------|
E|---------------------------------12---10-----------7-----------|
 |Guitar 2:                                                      |
e|---------------------------------14--------10------7-----10----|
B|-10---------12-------------7/8---------------------------------|
G|----------------12-------9-------11--------7-------4-----------|
D|---------------------------------------------------------------|
A|---------------------------------------------------------------|
E|---------------------------------------------------------------|

  Guitar 1:
e|---------------------|
B|---------------------|
G|---------------------|
D|------5-------5------|
A|--5-7---7-5-7---7----|
E|---------------------|
 |Guitar 2:            |
e|-/12-----------------|
B|---------------------|
G|---------------------|
D|---------------------|
A|---------------------|
E|---------------------|

End on:

e|-----|
B|-----|
G|-----|
D|--2--|
A|--2--|
E|--0--|



| /  slide up
| \  slide down
| h  hammer-on
| p  pull-off
| ~  vibrato
| +  harmonic
| x  Mute note
===============================================================================
Comments