Cky - Sniped Chords & Tabs

 

Sniped Chords & Tabs

Cky Chords & Tabs

Version: 2 Type: Tab 0 ratings
1 star 2 stars 3 stars 4 stars 5 stars
comments

Sniped Tab

   
Song - Sniped
Tabbed by - Matt Wells 17/7/05

It's not as hard as it sounds, providing I'm right of course. I think this is pretty good.

Intro:
(Don't know the very first bit)

D|--------------------------------------------------------|
A|--------------------------------------------------------|
F|--------------------------------------------------------|
C|--------------------------------------------------------|
G|--------------------------------------------------------|
D|-000000000000000011-000000000000000011-0000333322223333-|

D|-----------------------------------------------------|
A|-----------------------------------------------------|
F|-----------------------------------------------------|
C|-----------------------------------------------------|
G|-----------------------------------------------------|
D|-555555555555555533-555555555555555533-5555777788887-|

Verse:

D|--------------------------------------------------------|
A|--------------------------------------------------------|
F|--------------------------------------------------------|
C|--------------------------------------------------------|
G|--------------------------------------------------------|
D|-000000000000000011-000000000000000011-0000333322223333-|

D|-----------------------------------------------------|
A|-----------------------------------------------------|
F|-----------------------------------------------------|
C|-----------------------------------------------------|
G|-----------------------------------------------------|
D|-555555555555555533-555555555555555533-5555777788887-|
[ Tab from: http://www.guitartabs.cc/tabs/c/cky/sniped_tab_ver_2.html ]
D|--------------------------------------------------------|
A|--------------------------------------------------------|
F|--------------------------------------------------------|
C|--------------------------------------------------------|
G|-444444444444444422-444444444444444422-4444222200002222-|
D|--------------------------------------------------------|

Play that twice...

Chorus:
(Don't know the "You didn't get to see your" part)

D|-----------------------------------------------|
A|-----------------------------------------------|
F|-----------------------------------------------|
C|-----------------------------------------------|
G|-321-321-210-----321-321-210-----777777-555555-|
D|-------------321-------------321---------------|

Or you can just play...
D|-------------------------------|
A|-------------------------------|
F|-------------------------------|
C|-------------------------------|
G|-3-3-2---3-3-2---777777-555555-|
D|-------3-------3---------------|

Solo:

D|------------------------------------------------------9h10-10/12v|
A|-----------------------------------------------------------------|
F|---------------------/14-14/16-12v-9v-11h12p11-------------------|
C|-/14v\--/16-17\16-12---------------------------12v-9v------------|
G|-----------------------------------------------------------------|
D|-----------------------------------------------------------------|

D|-14h15p14---------------------------------------12v-|
A|----------15----------------------------------------|
F|-------------14v-14/16\12v-9-11h12p11---------------|
C|--------------------------------------12v-9v-12-----|
G|----------------------------------------------------|
D|----------------------------------------------------|

Outro:

D|----------------------------------------------------------|
A|----------------------------------------------------------|
F|----------------------------------------------------------|
C|----------------------------------------------------------|
G|-444444444444444422-444444444444444422-4444222200002222---|
D|--------------------------------------------------------0-|
Comments