Cky - Sink Into The Underground Chords & Tabs

 

Sink Into The Underground Chords & Tabs

Cky Chords & Tabs

Version: 5 Type: Tab 0 ratings
1 star 2 stars 3 stars 4 stars 5 stars
comments

Sink Into The Underground Tab

   
This is not my work, it belongs to moderndayA7X, this is the only accurate tab i have
found for this song. moderndayA7X did a sweet job with it



CKY - Sink Into the Underground
Tabbed By: moderndayA7X
Email: SUPASONEC@yahoo.com

Tuning: Standard (E A D G B E)

CKY uses an octave divider and other stuff a lot in their songs, including this one.  
I don't have one.  I just have a guitar and a crappy little amp.  This is the best 
I could do-enjoy!

Main Riff
E|----------------------------------------------------------------||
B|----------------------------------------------------------------||
G|----------------------------------------------------------------||
D|-------------2-2-0-0--------------------------------------------||
A|-----0-0-4-4--------4-4-2-2-4-2-----4-4-2-2-0-0-----------4-2-0-||
E|-2-2----------------------------0-0-------------2-2-0-0-2-------||
[ Tab from: http://www.guitartabs.cc/tabs/c/cky/sink_into_the_underground_tab_ver_5.html ]
Verse Pt. 1
E|--------------------------------||
B|--------------------------------||
G|--------------------------------||
D|--------------------------------||
A|-4---4444---2---2222------------||
E|-2---2222---0---0000------------||

Verse Pt. 2
E|--------------------------------||
B|--------------------------------||
G|--------------------------------||
D|-7--------6--9------------------||
A|-5--------4--7--4---------------||
E|----------------2---------------||

Chorus
E|----------------------------------------------------------------||
B|----------------------------------------------------------------||
G|----------------------------------------------------------------||
D|----------------------------------0-2--0-2--0-2---0-2--0-2------||
A|-----0-0-2-4----0-5--4-2-4-2------0-2--0-2--0-2---0-2--0-2------||
E|-2-2---------2-------------0------------------------------------||

Last chord (ends on)
E|----------------||
B|----------------||
G|----------------||
D|----------------||
A|-4--------------||
E|-2--------------||

Order:
Main riff  2x
Verse Pt. 1  2x
Verse Pt. 2  1x
Main riff  2x
Verse Pt. 1  2x (Note: the lead guitar plays Main Riff the 2nd time)
Verse Pt. 2  2x
Chorus  2x
Main riff  4x
Verse Pt. 2  2x
Chorus 4x
Last chord

That's all.
Comments