Cky - Sink Into The Underground Chords & Tabs

 

Sink Into The Underground Chords & Tabs

Cky Chords & Tabs

Version: 2 Type: Tab 0 ratings
1 star 2 stars 3 stars 4 stars 5 stars
comments

Sink Into The Underground Tab

Heres's the tab for "Sink into the underground" by "CKY"
I can't take credit for figuring it out because my friend Nick.R. did it, I'm (josh.C.) 
just writing it out for you  guys.This tab is almost perfect if not completly perfect.If 
you don't like it your an ass and you can figure it out by yourself.

************************************************************


Starting & verses
*****************
E-------------------------------------  
B------------------------------------- play as many     
G-------------------------------------  times needed
D-------------------------------------   until chorus
A------44775544240---44--00-----420---
D--4477------------22--22--44224------
[ Tab from: http://www.guitartabs.cc/tabs/c/cky/sink_into_the_underground_tab_ver_2.html ]
Chorus
**************
E-----------------------------------------------------------
B-----------------------------------------------------------
G----------------6------------------------------------------
D-0--------------4-play 3 times-2--------------4------------
A-0-play 9 times-4--------------2-play-3 times-4-play 9 timz
D-0-----------------------------2--------------4------------

Second Chorus
*************** 
E-----------------------------------------------------------
B-----------------------------------------------------------
G-----------------------------------------------------------
D-----------------0--20202----------------------------------
A---2240---22554420--20202--play-10 times-all-together------
D-44-----44----------20202----------------------------------


Thats it all you half to do is figure out the order by listening to the song. Post your 
comments or e-mail me at ckyjosh@hotmail.com
Comments