Cky - Sink Into The Underground Chords & Tabs

 

Sink Into The Underground Chords & Tabs

Cky Chords & Tabs

Version: 4 Type: Bass Tab 0 ratings
1 star 2 stars 3 stars 4 stars 5 stars
comments

Sink Into The Underground Bass Tab

Cky
Sink Into The Underground

Tune to Drop D ( Half a twist clockwise to the E string machine head)

Intro

G| ------------------------------------------------------------------|
D| -------------2-2-0-0----------------------------------------------|
A| -----0-0-4-4---------4-4-2-0-4-0-----4-4-2-2-0-0-----------4-2-0--|
D| -4-4-----------------------------2-2-------------4-4-2-2-4--------|

G| ------------------------------------------------------------------|
D| -------------2-2-0-0----------------------------------------------|
A| -----0-0-4-4---------4-4-2-0-4-0-----4-4-2-2-0-0-----------4-2-0--|
D| -4-4-----------------------------2-2-------------4-4-2-2-4--------|


Verse

G| -------------------------------------------------------------------|
D| -------------------------------------------------------------------|
A| -------------0--0-2-4-------------0-2-0--------------0--0-2-4------|
D| -4~--2-4-2-4----------4-2~--2-2-2--------4~--2-4-2-4----------4-2~-|

G| -------------------------------|
D| ---------------/4~------2-4~---|
A| --------0-2-0------5--4--------|
D| --2-2-2------------------------|


Pre-Chorus

G| ------------------------------------------------------------------|
D| -------------2-2-0-0----------------------------------------------|
A| -----0-0-4-4---------4-4-2-0-4-0-----4-4-2-2-0-0-----------4-2-0--|
D| -4-4-----------------------------2-2-------------4-4-2-2-4--------|

G| ------------------------------------------------------------------|
D| -------------2-2-0-0----------------------------------------------|
A| -----0-0-4-4---------4-4-2-0-4-0-----4-4-2-2-0-0-----------4-2-0--|
D| -4-4-----------------------------2-2-------------4-4-2-2-4--------|


Verse

G| -------------------------------------------------------------------|
D| -----------------------------------------------------2-2-0-0-------|
A| -------------0--0-2-4-------------0-2-0------0-0-4-4---------4-4-2-|
D| -4~--2-4-2-4----------4-2~--2-2-2--------4-4-----------------------|

G| -----------------------------------------------------------------------|
D| -----------------------------------------/4~------2-4~---/4~------2-4~-|
A| -0-4-0-----4-4-2-2-0-0-----------4-2-0-------5--4------------5--4------|
D| -------2-2-------------4-4-2-2-4---------------------------------------|


Chorus

G| ------------------------------------------------------------------|
D| ------------------------------------------------------------------|
A| ---0---0-2-4---0---5-4-2-0--------------------------------0---0-2-|
D| -4---4-------4---4---------0-2~--0-2-0-2-0-2~--0-2-0-2--4---4-----|
[ Tab from: http://www.guitartabs.cc/tabs/c/cky/sink_into_the_underground_btab_ver_4.html ]
G| --------------------------------------------------|
D| --------------------------------------------------|
A| 4---0---5-4-2-0-----------------------------4-2-0-|
D| --4---4---------0-2~--0-2-0-2-0-2~--0-2-0-2-------|


Bridge

G| ------------------------------------------------------------------|
D| -------------2-2-0-0----------------------------------------------|
A| -----0-0-4-4---------4-4-2-0-4-0-----4-4-2-2-0-0-----------4-2-0--|
D| -4-4-----------------------------2-2-------------4-4-2-2-4--------|

G| ------------------------------------------------------------------|
D| -------------2-2-0-0----------------------------------------------|
A| -----0-0-4-4---------4-4-2-0-4-0-----4-4-2-2-0-0-----------4-2-0--|
D| -4-4-----------------------------2-2-------------4-4-2-2-4--------|

G| ------------------------------------------------------------------|
D| -------------2-2-0-0----------------------------------------------|
A| -----0-0-4-4---------4-4-2-0-4-0-----4-4-2-2-0-0-----------4-2-0--|
D| -4-4-----------------------------2-2-------------4-4-2-2-4--------|

G| ------------------------------------------------------------------|
D| -------------2-2-0-0----------------------------------------------|
A| -----0-0-4-4---------4-4-2-0-4-0-----4-4-2-2-0-0-----------4-2-0--|
D| -4-4-----------------------------2-2-------------4-4-2-2-4--------|

G|-------------------------------|
D|-/4~------2-4~---/4~------2-4~-|
A|-----5--4------------5--4------|
D|-------------------------------|


Chorus

G| ------------------------------------------------------------------|
D| ------------------------------------------------------------------|
A| ---0---0-2-4---0---5-4-2-0--------------------------------0---0-2-|
D| -4---4-------4---4---------0-2~--0-2-0-2-0-2~--0-2-0-2--4---4-----|

G| ------------------------------------------------------------------|
D| ------------------------------------------------------------------|
A| 4---0---5-4-2-0-----------------------------4-2-0-----0---0-2-4---|
D| --4---4---------0-2~--0-2-0-2-0-2~--0-2-0-2---------4---4-------4-|

G| ------------------------------------------------------------------|
D| ------------------------------------------------------------------|
A| 0---5-4-2-0-----------------------------4-2-0-----0---0-2-4---0---|
D| --4---------0-2~--0-2-0-2-0-2~--0-2-0-2---------4---4-------4---4-|

G| ---------------------------------------------------|
D| ---------------------------------------------------|
A| 5-4-2-0-----------------------------4-2-0----------|
D| --------0-2~--0-2-0-2-0-2~--0-2-0-2-------4~-------|


Written and tabbed by me Bob. Thanks
Comments