Cky - Sink Into The Underground Chords & Tabs

 

Sink Into The Underground Chords & Tabs

Cky Chords & Tabs

Version: 3 Type: Bass Tab 0 ratings
1 star 2 stars 3 stars 4 stars 5 stars
comments

Sink Into The Underground Bass Tab

CKY - Sink Into The Underground

Intro and Verse

|-------------------------------------------------------
|-------------------------------------------------------
|--------------------5-5--3-3--1-1--------------5--3--1-
|--5---3-5-3-5---3-3---------------5-5--3-3--5----------

Play this before second verse and before chorus
[ Tab from: http://www.guitartabs.cc/tabs/c/cky/sink_into_the_underground_btab_ver_3.html ]
|--------------
|--------------
|--6---5-------
|---------3--5-

Chorus

|----------------------------------------------------------------------
|----------------------------------------------------------------------
|----------------------------------------------------------------------
|--5--8--10--12--5--8--10-----1--3----1--3--1--3----1--3----1--3--1--3-

 
If you have a request for a song tabbed on guitar or bass, e-mail me at jonp137@hotmail.com
Comments