Cky - Sink Into The Underground Chords & Tabs

 

Sink Into The Underground Chords & Tabs

Cky Chords & Tabs

Version: 1 Type: Bass Tab 0 ratings
1 star 2 stars 3 stars 4 stars 5 stars
comments

Sink Into The Underground Bass Tab

Artist: cKy
Song: Sink Into The Underground
Album: Infiltrate - Destroy - Rebuild
Bass Tab

Drop D tuning, this song is played in a sort of swing, so it's near impossible to tab
it with the correct timing, so you'll just have to listen to the song to get it down.
the intro will not sound right the first time, so just listen to the song to get the timing
down.

Intro:
G-------------------------------------------------------------------------
D-------------------------------------------------------------------------
A--------------------2h4-------4---4-2---2-0---0-----------------4-2---0--
D-4---2-4-2-4-2---2------2---2-------------------4---4-2---4-4------------

[ Tab from: http://www.guitartabs.cc/tabs/c/cky/sink_into_the_underground_btab.html ]
Verse:
G-------------------------------------------
D-------------------------------------------
A--------------------2h4-------------4-2-0--
D-4---2-4-2-4-2---2-----2-----2---2--------


Pre-Verse:
G------------------------
D-----------------2---4--
A-5-----4-2-0-4----------
D------------------------


Pre-Chorus:
G--------------------------------
D-----------------2---4----------
A-5-----4-2-0-4-----------4-2-0--
D--------------------------------


Chorus:
G------------------------------------------------------------------------------
D------------------------------------------------------------------------------
A-------0---0-2---4-------2---4-5---4-2---2-0---------------------------4-2-0--
D-4---4-------------4---4---------------------0-2---0-2-0-2-0-2---0-2-0--------


Order of Riffs:
Intro x 2
Verse x 2
Pre-verse x 1
Intro x 1
Verse x 1
Pre-Chorus x 2
Chorus x 2
Intro x 4
Pre-Chorus x 2
Chorus x 4
Comments