Cky - Shock And Terror Chords & Tabs

 

Shock And Terror Chords & Tabs

Cky Chords & Tabs

Version: 4 Type: Tab 0 ratings
1 star 2 stars 3 stars 4 stars 5 stars
comments

Shock And Terror Tab

-|---|------------------------------------------------------------------------
-|---|------------------------------------------------------------------------
-|---|------------------------------------------------------------------------
-|-8-|----------6-------------------------6-----------------------6-----------
-|-6-|7-4-4-7/9--------------7-9-7---7/9-------------/9-7-7\4-7/9-------------
-|---|------------7-4-2-0----------9--------7-4-2-0------------------7-4-2-0--
      RIFF 1                                                                 
[ Tab from: http://www.guitartabs.cc/tabs/c/cky/shock_and_terror_tab_ver_4.html ]
-|------------------------|---------------------------------------------------
-|------------------------|---------------------------------------------------
-|------------------------|---------------------------------------------------
-|-------------6----------|---999-666-101010-666------------------------------
-|-7-9-7---7/9------------|---------------------------------------------------
-|-------9-------7-4--8-4-|---------------------------------------------------
                              0:56 + 1:53 + 3:02                              

VERSE x 4
|---------------------------------------------------
|---------------------------------------------------
|--------------9----11-------------------9---11-----
|-11-11----------9----9-----11-11----------9---11---
|-------11-12---------------------11-12-------------
|---------------------------------------------------


RIFF 1 

VERSE x 4


CHORUS X4
|--------------------------------------------------------
|--------------------------------------------------------
|--------------------------------------------------------
|--------/2-----------------------------------4-/6-4-2---
|-/4-2-4----4-2---2-4-2------2-2--2--2-------------------
|---------------4-------4--4-----------4-4-4-------------
Comments