Cky - Shock And Terror Chords & Tabs

 

Shock And Terror Chords & Tabs

Cky Chords & Tabs

Version: 3 Type: Tab 0 ratings
1 star 2 stars 3 stars 4 stars 5 stars
comments

Shock And Terror Tab

standard tuning intro only, email for corrections theckyguy502@aol.com, thanks

------------------------
------------------------
------------------------  X3
------------------------
6--7-6-4--7-9-11--------
-----------------7-4-2-0
[ Tab from: http://www.guitartabs.cc/tabs/c/cky/shock_and_terror_tab_ver_3.html ]
then...
------------------------
------------------------
------------------------
------------------------
6--7-6-4--7-9-11--------
-----------------7-4-8-5

eh, i figured it out in a few minutes, it may not be PERFECT but i dont know if
my tuning is messed up but when i play with the cd its perfect. check out my
other tabs by cky, i have a lot more. thanks
Comments