Cky - Shock And Terror Chords & Tabs

 

Shock And Terror Chords & Tabs

Cky Chords & Tabs

Version: 1 Type: Tab 0 ratings
1 star 2 stars 3 stars 4 stars 5 stars
comments

Shock And Terror Tab

Shock & Terror
Artist: CKY ( Deron Miller, Vern Zaborowski, Jess Margera, Chad I. Ginsburg)
Album: Infiltrate Destroy Rebuild, 2002, Island Def Jam

Tuning: Half step down.	

[ Tab from: http://www.guitartabs.cc/tabs/c/cky/shock_and_terror_tab.html ]
Chorus
eb:-----------------------------------------------------------------------------------------------
Bb:-----------------------------------------------------------------------------------------------
Gb:-----------------------------------------------------------------------------------------------
Db:------------------------3----------------------------------------------------------------4-2-0-
Ab:----5------3------5--------5-------3------------3-----5----3-----0-----7-7--7-7---5-5----------
Eb:----------------------------------------5------------------------------5-5--5-5---3-3----------


Opening Riff
eb:------------------------------------------------------------------------------------------------
Bb:------------------------------------------------------------------------------------------------
Gb:------------------------------------------------------------------------------------------------
Db:-----------------------------------------------4------------------------------------------------
Ab:----5-----7-----5------------5------7-----------------------------------------------------------
Eb:------------------------7---------------------------7---6---5---3-------------------------------

Verse Riff

I haven't got this part yet



If you have any add ons or corrections contact me at nibble_narfar@hotmail.com          
Comments