Cky - Shippensbam-shippensberg Chords & Tabs

 

Shippensbam-shippensberg Chords & Tabs

Cky Chords & Tabs

Version: 2 Type: Tab 0 ratings
1 star 2 stars 3 stars 4 stars 5 stars
comments

Shippensbam-shippensberg Tab

   
This is the best god damn song in the world and this is the
exact cords if you know the songs but cKy is the best band ever
and this song is one of there best
cKy-Shippensburg
Vol. 1
Standard Tuning

Intro/Main Riff
---------------------------------|
---------------------------------|
---------------------------------|
-------------7-5-------------2---|
-5-5-7-8-------------5---3-3---3-|
---------6-6-----3-3---3---------|

Verse
---------------------------------|
---------------------------------|
---------------------------------|
-7-7-------------7-7-------------|
-5-5-----5-5-----5-5-----5-5-----|
---------3-3-------------3-3-----|

You know what makes me happy
The things that make you sad
The feel that I controls absorbed by the radio jag

*Guitar keeps playing the verse while the bass plays
the main riff under it

I found my indecision
The product of the media grime
The feel that I control have you press rewind

Pre-Chorus
(these are power chords)

F                        G
And now I'm on the wings
Hoping that you'll hear
Don't bother to respond
You love to hear me again
And when the sun beams down all of your lies
Close, close, yeah close the light

Main Riff one time

then

SOLO

Guitar 1

With lots of fuzz and wah

--------------------------------------------------------------------------------|
--------------------------------------------------------------------------------|
11-11-10-10-8-8-10-10-11-11-13-13-8-8---11-11-10-10-8-8-10-10-11-11-13-13-8-8---|
--------------------------------------------------------------------------------|
--------------------------------------------------------------------------------|
--------------------------------------------------------------------------------|

----------------------------------|
----------------------------------|
11-11-10-10-8-8-6-6-8-8-10-10-11/-|
----------------------------------|
----------------------------------|
----------------------------------|
                              Slide up

Guitar 2

-----------------------|
-----------------------|
-----------------------|
-7-7---------------5-5-|
-5-5---8-8---5-5---3-3-|
-------6-6---3-3-------|

Verse 2
This time the guitar plays the main riff, too
[ Tab from: http://www.guitartabs.cc/tabs/c/cky/shippensbam_shippensberg_tab_ver_2.html ]
The sky's all grey in the barracks I know I'm a lousy hero
The classic act of feeling is that of a memory


Pre-Chorus 2

And you are peering down through parascopic eyes
Close, close, yeah close (conscience)

Chorus

Power Chords

  Bb     D        C
I try to hide the fact that I'm afraid

----------------------------------------|
----------------------------------------|
----------------------------------------|
----------------------------------------|
----------------------------------------|
-3-1-3----1-3-1-3----1-3-1-3----1-3-1-3-|

      Bb        D       C                Bb        D      C
We'll drive the band to Shippensberg and hope that we get played

----------------------------------------|
----------------------------------------|
----------------------------------------|
----------------------------------------|
----------------------------------------|
-3-1-3----1-3-1-3----1-3-1-3----1-3-1-3-|

Bridge

Guitar 1

-----------------------------------------------------------------|
-----------------------------------------------------------------|
-----------------------------------------------------------------|
-----------------------------------------------------------------|
-5-5-5-5-----------------3-3-3-3-5-5-5-5-----------------3-3-3-3-|
---------6-6-6-6-3-3-3-3-----------------6-6-6-6-3-3-3-3---------|

Guitar 2

-----------------------------------------------------------------|
-----------------------------------------------------------------|
---------------------------------9-9-9-9-----------------7-7-7-7-|
---------------------------------7-7-7-7-101010107-7-7-7-5-5-5-5-|
---------------------------------5-5-5-5-8-8-8-8-5-5-5-5-3-3-3-3-|
-----------------------------------------6-6-6-6-3-3-3-3---------|

Play 2x then

-----------------------|
-----------------------|
-----------------------|
-7-7---------------5-5-|
-5-5---8-8---5-5---3-3-|
-------6-6---3-3-------|
Play 4x

Verse 3
Music same as verse 2

And in the end of a season the voices turn it all off
The things that were so meaningless 'til the next one comes along

Chorus

And the outro is based on the second part of the chorus, if you can't figure it out, well then...
Comments