Cky - Shippensbam-shippensberg Chords & Tabs

 

Shippensbam-shippensberg Chords & Tabs

Cky Chords & Tabs

Version: 2 Type: Bass Tab 0 ratings
1 star 2 stars 3 stars 4 stars 5 stars
comments

Shippensbam-shippensberg Bass Tab

SHIPPENSBURG/SHIPPENSBAM - CKY

Tabbed by: Maureen aka haggardlyanialation (with some help from the 
official cky site and my friend Greg did the chorus)
Email:  XxStaindxGlassxX@aol.com

Key: 
^ =  Let note ring

Intro (Also second verse):
----------------------------|    
----------------------------|  Play
--5-5---------3-3-----------|   4x
--------5-5---------3-3-----|

Verse (First half of verse 1):
-------------------------------------|    
-------------------------------------|  Play
--5-5---------------3-3--------------|   2x
-----------5-5---------------3-3-----|
"You know what makes me happy....."

Verse (Second half of verse 1):
------------------------------------------|
--------------7-5-----------------2-------|  Play
5-5-7-8-----------------5-----3-3---3-----|   4x
----------6-6-------3-3---3---------------|
".....I found my indecision....."

Prechorus 1:
---------------------------------|
---------------------------------| Play
---------------------------------|  1x
-1^------3^------1^------3^------|
".....Now I'm on the wings....."

Prechorus 2:
---------------------------------------------------------------------------|
---------------------------------------------------------------------------|  Play x1
-------------------3-3-3-3-3-3-3-3---------------------3-3-3-3-3-3-3-3-----|
-1-1-1-1-1-1-1-1---------------------1-1-1-1-1-1-1-1-----------------------|
".....When the sun beams down....."

Play Intro 8x

Play Prechorus 2 1x
[ Tab from: http://www.guitartabs.cc/tabs/c/cky/shippensbam_shippensberg_btab_ver_2.html ]
Chorus:
---------------------------||-----------------------------------------|
---------------------------||-----------------------------------------|
---------------------------||-----------------------------------------|   ___
-1-1---5-5---9-7---5-1-----||-3-1-3---1-3-1-3---1-3-1-3---1-3-1-3-----|    
".....I try to hide the fact that I'm afraid....."                           
                                                                              /     1x
-----------------------------||-----------------------------------------| ___/
-----------------------------||-----------------------------------------|
-----------------------------||-----------------------------------------|
-1-1-1-1-5-5-5-5-7-7-7-7-----||-3-1-3---1-3-1-3---1-3-1-3---1-3-1-3-----|
       ".....We'll drive the band to Shippensburg and hope that we get played....."

Bridge:
------------------------------------------|
------------------------------------------|  Play
5-5-5-5-------------3-3-3-3---------------|   4x
----------5-5-5-5-------------3-3-3-3-----|

Play Intro 8x (Through drum solo and part that begins "And in the end of our season.....")

Play Chorus 1x With following change (Lasts till end):
|---------------------------------------------------------------------------------|
|---------------------------------------------------------------------------------|
|-----------------------------------------------------------1-3-1-3---------------|
|-3-1-3---1-3-1-3---1-3-1-3---1-3-1-3---1-3-1-3----1-3-1-3------------1-3-1-3-----|
Comments