Cky - Shippensbam-shippensberg Chords & Tabs

 

Shippensbam-shippensberg Chords & Tabs

Cky Chords & Tabs

Version: 1 Type: Bass Tab 0 ratings
1 star 2 stars 3 stars 4 stars 5 stars
comments

Shippensbam-shippensberg Bass Tab

Look at bottom for order and how many times each riff
is played.


RIFF 1

G|-----------------|-----------------|
D|-------------7-5-|-----------------|
A|-5-5-7-8---------|-----5-------7---|
E|---------6-6-----|-3-3---3-8-8---8-|
B|-----------------|-----------------|



RIFF 2

G|-----------------|-----------------|
D|-----------------|-----------------|
A|-5-5-------------|-----------------|
E|-----------------|-3-3-------------|
B|-----------------|-----------------|



RIFF 3

G|-----------------|-----------------|-----------------|-
D|-----------------|-----------------|-----------------|-
A|---------------0-|-3-1----0--0-----|---------------0-|-
E|-1-----------1---|-------------1---|-3-----------3---|-
B|-----------------|-----------------|-----------------|-

G|-----------------|
D|---3-------------|
A|-1------1----0---|
E|-----------------|
B|-----------------|



RIFF 4

G|-----------------|-----------------|-----------------|-
D|-----------------|-----------------|-----------------|-
A|---------------3-|---1----0--0-----|---------------1-|-
E|-1-1-1-1-1-1-1---|-------------1-3-|-3-3-3-3-3-3-3---|-
B|-----------------|-----------------|-----------------|-

G|-----------------|
D|-----------0-----|
A|---0-------------|
E|--------3--------|
B|-----------------|



RIFF 5

G|-----------------|-----------------|-----------------|-
D|-----------------|-----------------|-----------------|-
A|-------5-5-------|-----------------|-----------------|-
E|-6--6----------8-|---8--8----------|-----------------|-
B|-----------------|--------8-6-6----|-8-6-8-----6-8-6-|-
[ Tab from: http://www.guitartabs.cc/tabs/c/cky/shippensbam_shippensberg_btab.html ]
G|-----------------|-----------------|-----------------|-
D|-----------------|-----------------|-----------------|-
A|-----------------|-----------------|-------5-5-------|-
E|-----------------|-----------------|-6--6----------8-|-
B|-8----6-8-6-8----|---6-8-6-8-------|-----------------|-

G|-----------------|-----------------|-----------------|-
D|-----------------|-----------------|-----------------|-
A|-----------------|-------5-5-------|-----------------|-
E|---8--8----------|-6--6------------|-----------------|-
B|--------8-6-6----|---------------6-|-8-6-8-----6-8-6-|-

G|-----------------|-----------------|
D|-----------------|-----------------|
A|-----------------|-----------------|
E|-----------------|-----------------|
B|-8----6-8-6-8----|---6-8-6-8-------|



RIFF 6

G|-----------------|-----------------|
D|-----------------|-----------------|
A|-5-5-5-5---------|---------3-3-3-3-|
E|---------6-6-6-6-|-3-3-3-3---------|
B|-----------------|-----------------|



RIFF 7

G|-----------------|-----------------|
D|-----------------|-----------------|
A|-5-5-------------|---------3-3-----|
E|---------6-6-----|-3-3-------------|
B|-----------------|-----------------|



ENDING

G|-----------------|-------------------|-
D|-----------------|-------------------|-
A|-----------------|---------8-10-8-10-|-
E|-6-8-6-8-----6-8-|-6-8---------------|-
B|-----------------|-------------------|-

G|-------------------|
D|-------------------|
A|------8-10-8-10\---|
E|-------------------|
B|-------------------|



RIFF 1 X4
RIFF 2 X4
RIFF 1 X4
RIFF 3 X2 
RIFF 4 X2
RIFF 1 X8
RIFF 4 X2
RIFF 5 X1
RIFF 6 X4
RIFF 7 X4
RIFF 1 X4
RIFF 5 X1
ENDING X1
Comments