Cky - Saras Mask Chords & Tabs

 

Saras Mask Chords & Tabs

Cky Chords & Tabs

Version: 2 Type: Tab 0 ratings
1 star 2 stars 3 stars 4 stars 5 stars
comments

Saras Mask Tab

Sara's Mask -- cKy
By Deron Miller from Camp Volume One
Tab by John Houx 

Tuned down one whole step (low to high: DGCFAD)

-----------------------------------------
-----------------------------------------
-------------------7---------------------
-----------9----------9------------------
---------------9--------9--7---7--5-7-/9-
-2-3---/7--------------------------------

The first time I saw you I thought that I could just make another
And then I realized that in life you were just another mirror
The first words you spoke were the ones that I vaguely remember
But taddin the night and the times that we haven't spent together

Chorus
---------------------------------------------------------
---------------------------------------------------------
---------------------------------------------------------
------12-11---11-7---------------------------------------
------------------------7/9---7-7--5-7-7/9\7-------7-----
-7-------------------------------------------5---5---5-7-

And is it your face that's got you down?
Or is it your mind (mine) when no one's around? (Thinking thoughts of suicide)
And is it your face (mine)that's got you down?
Or is it your mind when no one's around?

Pre-Chorus

-------------------------------------------------------
-------------------------------------------------------
-------------------------------------------------------
--------------9-7--------------------------------------
-7--8-9--7-5-/7-5----7--8-9--7-5--9-7----7------5--/10-
-5--6-7--5-3---------5--6-7--5-3--7-5----5------3--/8--

Verse 2
(w/ distortion)

And now when she leaves in the dark behind amber waves of cancer
A stroll in the park is a walk for her hopes to be a dancer
A light at the end of a tunnel that's been going on forever
You don't understand why these people are looking unfamiliar

Pre-Chorus

So take my hand 'cause I will walk you around in a mask
Why don't you tell me about

Chorus

And is it your face that's got you down?
Or is it your mind (mine) when no one's around? (Thinking thoughts of suicide)
And is it your face (mine)that's got you down?
Or is it your mind when no one's around?

Verse 3

And now when you leave in the dark beside everybody's answers
You plant it away to abandon us and live your life the way you like
Avoiding the urge to go sulk in your remedial appearance
Sara I only expect to see the whole thing a little bit clearer

Pre-Chorus
[ Tab from: http://www.guitartabs.cc/tabs/c/cky/saras_mask_tab_ver_2.html ]
So take my hand 'cause I will walk you around in a mask
Why don't you tell me about

Bridge 1

Guitar 1

--------------------
--------------------
--------------------
--------------------
--------------------
-7--7-7--7-10-7-9-5-

Guitar 2

-------------------
-------------------
-------------------
-------------------
-------------------
-5b-------------b7\

Gradual full bend with wah

Bridge 2

Guitar 1

-----------------------------------------
-----------------------------------------
-----------------------------------------
-----------------------------------------
-----------------------------------------
-5--5-5--5-5--5-5--5-7--7-7--7-7--7-7--7-

-----------------------------------------
-----------------------------------------
-----------------------------------------
-----------------------------------------
-9--9-9--9-9--9-9--9---------------------
---------------------2--2-2--0-2--0-2--5-

Guitar 2
w/ wah
---------------------
---------------------
---------------------
---------------------
---------------------
-5--5-5--5-7-7-10-10-

Bridge 3

Guitar 1 (Right Channel)
Clean w/ echo

------------------------------------------------
------------------------------------------------
------7p6--6------------7---7--7-7--------------
-------------6-6---6-6--7---7--7-7--7-7---7-7-7-
-9----------------------5---5--5-5--7-7---7-7-7-
-7----------------------------------5-5---5-5-5-

Guitar 2 (Left CHannel)
Clean w/ echo

---------------------------------------------------------
---------------------------------------------------------
---------------------------------------------------------
------12-11---11\7-------------------------------------0-
------------------------7/9---7-7--5-7-7/9\7------/7-----
-7-------------------------------------------5---5-------

-------------------------------------------------
-------------------------------------------------
-------------------------------------------------
-7h9p7---7h9p7-----------------------------------
---------------9-7--5-7/9\7----------7-----------
----------------------------5------5----5h7------

And is it your face...

---------------------------------------------------------
---------------------------------------------------------
---------------------------------------------------------
------12-11---11\7-----------------------------------0---
------------------------5---7--7/9-7-7-----5-------------
-7-------------------7-----------------------------------

Pre-Chorus
Comments