Cky - Santas Coming Chords & Tabs

 

Santas Coming Chords & Tabs

Cky Chords & Tabs

Version: 5 Type: Tab 0 ratings
1 star 2 stars 3 stars 4 stars 5 stars
comments

Santas Coming Tab

   
#----------------------------------PLEASE NOTE---------------------------------#
#This file is the author's own work and represents their interpretation of the #
#song. You may only use this file for private study, scholarship, or research. #
#------------------------------------------------------------------------------##

                                 SANTA'S COMING
                        As recorded by Camp Kill Yourself
                         (From the 2000 Album VOLUME 2)

Words by Deron Miller

Music by Deron Miller and Chad Ginsburg
Arranged by Camp Kill Yourself


Gtr I (Eb Ab Db Gb Bb Eb) - 'Untitled'
Gtr II (Eb Ab Db Gb Bb Eb) - 'Untitled'
Gtr III (Eb Ab Db Gb Bb Eb) - 'Untitled'

   Intro
    Q=85
    D  A  D  N.C.      D  A  N.C.
   4/4
    Gtr I
    q  q  e. S S S E   q  e. S S S S S E E
||-------------------|---------------------|
||o------------------|---------------------|
||--7-----7--7-9-7---|-7-----7-9-7---------|
||--7--7--7--------9-|-7--7--------9-7-5---|
||o-5--7--5----------|-5--7--------------7-|
||-----5-------------|----5----------------|


 Pre-Verse
  N.C.
  S S S E. E S S S E. E   S S S Q   E S E Q    E E E E E Q  E
|-----------------------|--------------------|----------------|
|-----------------------|--------------------|----------------|
|----------------7-7----|--------------------|----------------|
|-----7-7--7-7-9--------|---7-7-7--/9-7-5-5--|-4-7---4---5----|
|-5-9-----------------5-|-9------------------|-----5---7----4-|
|-----------------------|--------------------|----------------|


  D  A  D  N.C.      D  A  N.C.
  q  q  e. S S S E   q  e. S S S S S E E
|------------------|---------------------|
|------------------|---------------------|
|-7-----7--7-9-7---|-7-----7-9-7---------|
|-7--7--7--------9-|-7--7--------9-7-5---|
|-5--7--5----------|-5--7--------------7-|
|----5-------------|----5----------------|


 Verse
  N.C.
  S S S E. E S S S E. E   S S S Q   E S E Q
|-----------------------|--------------------|
|-----------------------|--------------------|
|----------------7-7----|--------------------|
|-----7-7--7-7-9--------|---7-7-7--/9-7-5-5--|
|-5-9-----------------5-|-9------------------|
|-----------------------|--------------------|


 Chorus
  Q=130
  F      G  F#                         F      G  F#
  Gtrs II, III
~~~~~~~~~~~~~~~~~~~~~~~~~~~~~~~~~~~~~     PM|         PM------------|
  Q  E E Q  Q    E E E E E E  E   E    Q  E E Q  Q    E E E E E E E E
|--------------|---------------------|--------------|------------------|
|--------------|-------------15-(15)-|--------------|------------------|
|--------------|---------------------|--------------|------------------|
|-3------------|---------------------|-3------------|------------------|
|-3--3-3-5--4--|-4-4-4-4-4-4--4---4--|-3--3-3-5--4--|-4-4-4-4-4-4-4-4--|
|-1--1-1-3--2--|-2-2-2-2-2-2--2---2--|-1--1-1-3--2--|-2-2-2-2-2-2-2-2--|


  F      G  F#                         F      G  F#
~~~~~~~~~~~~~~~~~~~~~~~~~~~~~~~~~~~~~     PM|         PM------------|
  Q  E E Q  Q    E E E E E E  E   E    Q  E E Q  Q    E E E E E E E E
|--------------|---------------------|--------------|------------------|
|--------------|-------------15-(15)-|--------------|------------------|
|--------------|---------------------|--------------|------------------|
|-3------------|---------------------|-3------------|------------------|
|-3--3-3-5--4--|-4-4-4-4-4-4--4---4--|-3--3-3-5--4--|-4-4-4-4-4-4-4-4--|
|-1--1-1-3--2--|-2-2-2-2-2-2--2---2--|-1--1-1-3--2--|-2-2-2-2-2-2-2-2--|


 Pre-Verse
  Q=85
  D  A  D  N.C.      D  A  N.C.
  Gtr I
  q  q  e. S S S E   q  e. S S S S S E E
|------------------|---------------------|
|------------------|---------------------|
|-7-----7--7-9-7---|-7-----7-9-7---------|
|-7--7--7--------9-|-7--7--------9-7-5---|
|-5--7--5----------|-5--7--------------7-|
|----5-------------|----5----------------|


 Verse
  N.C.
  S S S E. E S S S E. E   S S S Q   E S E Q
|-----------------------|--------------------|
|-----------------------|--------------------|
|----------------7-7----|--------------------|
|-----7-7--7-7-9--------|---7-7-7--/9-7-5-5--|
|-5-9-----------------5-|-9------------------|
|-----------------------|--------------------|


 Chorus
  Q=130
  F      G  F#                     F      G  F#
  Gtrs II, III
     PM|         PM------------|      PM|         PM------------|
  Q  E E Q  Q    E E E E E E E E   Q  E E Q  Q    E E E E E E E E
|--------------|-----------------|--------------|------------------|
|--------------|-----------------|--------------|------------------|
|--------------|-----------------|--------------|------------------|
|-3------------|-----------------|-3------------|------------------|
|-3--3-3-5--4--|-4-4-4-4-4-4-4-4-|-3--3-3-5--4--|-4-4-4-4-4-4-4-4--|
|-1--1-1-3--2--|-2-2-2-2-2-2-2-2-|-1--1-1-3--2--|-2-2-2-2-2-2-2-2--|

[ Tab from: http://www.guitartabs.cc/tabs/c/cky/santas_coming_tab_ver_5.html ]
  F      G  F#                     F      G  F#
     PM|         PM------------|      PM|         PM------------|
  Q  E E Q  Q    E E E E E E E E   Q  E E Q  Q    E E E E E E E E
|--------------|-----------------|--------------|------------------|
|--------------|-----------------|--------------|------------------|
|--------------|-----------------|--------------|------------------|
|-3------------|-----------------|-3------------|------------------|
|-3--3-3-5--4--|-4-4-4-4-4-4-4-4-|-3--3-3-5--4--|-4-4-4-4-4-4-4-4--|
|-1--1-1-3--2--|-2-2-2-2-2-2-2-2-|-1--1-1-3--2--|-2-2-2-2-2-2-2-2--|


  F      G  F#                     F      G  F#
     PM|         PM------------|      PM|         PM------------|
  Q  E E Q  Q    E E E E E E E E   Q  E E Q  Q    E E E E E E E E
|--------------|-----------------|--------------|------------------|
|--------------|-----------------|--------------|------------------|
|--------------|-----------------|--------------|------------------|
|-3------------|-----------------|-3------------|------------------|
|-3--3-3-5--4--|-4-4-4-4-4-4-4-4-|-3--3-3-5--4--|-4-4-4-4-4-4-4-4--|
|-1--1-1-3--2--|-2-2-2-2-2-2-2-2-|-1--1-1-3--2--|-2-2-2-2-2-2-2-2--|


  F      G  F#                     F      G  F#
     PM|         PM------------|      PM|         PM------------|
  Q  E E Q  Q    E E E E E E E E   Q  E E Q  Q    E E E E E E E E
|--------------|-----------------|--------------|------------------|
|--------------|-----------------|--------------|------------------|
|--------------|-----------------|--------------|------------------|
|-3------------|-----------------|-3------------|------------------|
|-3--3-3-5--4--|-4-4-4-4-4-4-4-4-|-3--3-3-5--4--|-4-4-4-4-4-4-4-4--|
|-1--1-1-3--2--|-2-2-2-2-2-2-2-2-|-1--1-1-3--2--|-2-2-2-2-2-2-2-2--|


 Verse
  Q=85
  N.C.
  Gtr I
  E E E E E E Q    E E E E E Q.     E E E E E E E E   S S E E E E E Q
|----------------|----------------|-----------------|-------------------||
|----------------|----------------|---7-------------|------------------o||
|-7-9-7-6-7------|-7-9-7-6-7------|-9---9-8-9-6-6-6-|-6-7-9-7-6---------||
|-----------9-9--|-----------9----|-----------------|-----------9-7-----||
|----------------|----------------|-----------------|------------------o||
|----------------|----------------|-----------------|-------------------||


 Outro
  D  A  D  N.C.      D  A  N.C.
  q  q  e. S S S E   q  e. S S S S S E E
|------------------|---------------------|
|------------------|---------------------|
|-7-----7--7-9-7---|-7-----7-9-7---------|
|-7--7--7--------9-|-7--7--------9-7-5---|
|-5--7--5----------|-5--7--------------7-|
|----5-------------|----5----------------|


  N.C.
  S S S E. E S S S E. E   S S S Q   E S E Q
|-----------------------|--------------------|
|-----------------------|--------------------|
|----------------7-7----|--------------------|
|-----7-7--7-7-9--------|---7-7-7--/9-7-5-5--|
|-5-9-----------------5-|-9------------------|
|-----------------------|--------------------|


  N.C.
  E E E E E Q.     E E E E E Q.     E E E E E Q.     E E E E E Q.
|----------------|----------------|----------------|-----------------|
|----------------|----------------|----------------|-----------------|
|----------------|----------------|----------------|-----------------|
|-4-7---4---5----|-4-7---4---5----|-4-7---4---5----|-4-7---4---5-----|
|-----5---7------|-----5---7------|-----5---7------|-----5---7-------|
|----------------|----------------|----------------|-----------------|


  N.C.
  E E E E E Q.     E E E E E Q  E   W          +W
|----------------|----------------|----------|--------*|
|----------------|----------------|----------|--------*|
|----------------|----------------|----------|--------*|
|-4-7---4---5----|-4-7---4---5----|----------|--------*|
|-----5---7------|-----5---7----4-|-5--------|-(5)----*|
|----------------|----------------|----------|--------*|


Duration Legend
---------------
W - whole; H - half; Q - quarter; E - 8th; S - 16th; T - 32nd; X - 64th; a - acciaccatura
+ - note tied to previous; . - note dotted; .. - note double dotted
Uncapitalized letters represent notes that are staccato (1/2 duration)
Irregular groupings are notated above the duration line
Duration letters will always appear directly above the note/fret number it represents the
duration for.  Duration letters with no fret number below them represent rests.  Multi-
bar rests are notated in the form Wxn, where n is the number of bars to rest for.  Low
melody durations appear below the staff

Tablature Legend
----------------
 h   - hammer-on
 p   - pull-off
 b   - bend
 pb  - pre-bend
 r   - bend release (if no number after the r, then release immediately)
 /\  - slide into or out of (from/to "nowhere")
 s   - legato slide
 S   - shift slide
  - natural harmonic
[n]  - artificial harmonic
n(n) - tapped harmonic
 ~   - vibrato
 tr  - trill
 T   - tap
 TP  - trem. picking
 PM  - palm muting
\n/  - tremolo bar dip; n = amount to dip
 \n  - tremolo bar down
 n/  - tremolo bar up
/n\  - tremolo bar inverted dip
 =   - hold bend; also acts as connecting device for hammers/pulls
 <>  - volume swell (louder/softer)
 x   - on rhythm slash represents muted slash
 o   - on rhythm slash represents single note slash

Misc Legend
-----------
 |  - bar
||  - double bar
||o - repeat start
o|| - repeat end
*|  - double bar (ending)
 :  - bar (freetime)
 $  - Segno
 &  - Coda
Tempo markers -  = BPM(8/16=s8/s16), where s8 = swing 8ths, s16 = swing 16ths
Comments