Cky - Santas Coming Chords & Tabs

 

Santas Coming Chords & Tabs

Cky Chords & Tabs

Version: 4 Type: Tab 0 ratings
1 star 2 stars 3 stars 4 stars 5 stars
comments

Santas Coming Tab

Santa's Coming
CKY
Tuning: dropped d and half step down
C#G#C#F#A#D# (Low to high)

Intro:

|-----------------------------------------|
|-----------------------------------------|
|-7---7--7/9\7----7---7/9\7---------------|
|---7----------9----7--------9--7---------|
|---------------------------------10--7---|
|-----------------------------------------|

|------------------------------------------|
|------------------------------------------|
|--------------------7--7------------------|
|-------7--7---7-7/9-----------7--7--7--7-7|
|--5/10-------------------5/10-------------|
|------------------------------------------|
[ Tab from: http://www.guitartabs.cc/tabs/c/cky/santas_coming_tab_ver_4.html ]
|------------------------------------------|
|------------------------------------------|
|------------------------------------------|
|/9\7-----------7--------------------------|
|-----10-10---9---5-9-7-7/10-7/10----------|
|---------------------------------11-------|

Heavy rock part:
|--------------------------------16~-------|
|------------------------------------------|
|------------------------------------------|
|-0--0-0--2--1--1-1-1-1-1-1-1-1------------|
|-0--0-0--2--1--1-1-1-1-1-1-1-1------------|
|-0--0-0--2--1--1-1-1-1-1-1-1-1------------|
     P.M        P.M............

Bridge:
|------------------------------------------|
|-7--7/9--7-6-7-----7--7/9--7-6-7---9--9/11|
|---------------9-9---------------9--------|
|------------------------------------------|
|------------------------------------------|
|------------------------------------------|

|------------------------------------------|
|-9-8-9-6--6--6---6-7-9-7-6----------------|
|---------------------------9-7------------|
|------------------------------------------|
|------------------------------------------|
|------------------------------------------|
Comments