Cky - Promiscuous Daughter Chords & Tabs

 

Promiscuous Daughter Chords & Tabs

Cky Chords & Tabs

Version: 1 Type: Bass Tab 0 ratings
1 star 2 stars 3 stars 4 stars 5 stars
comments

Promiscuous Daughter Bass Tab

Artist: CKY
Song: Promiscuous Daughter
Tabbed By: Jeremy B. (insaneryder14@dirtjump.net)
Tuning: Standard EADG


Verse:
G|------------------|
D|------------------|
A|--5-5---8-8--8-8--|
E|------------------|

G|-----------------------|
D|-----------------------|
A|-55555555--88888888----|
E|-----------------------|

Pre-Solo:
G|------------------|
D|------------------|
A|-----------3------|
E|-0-0000000--------|
[ Tab from: http://www.guitartabs.cc/tabs/c/cky/promiscuous_daughter_btab.html ]
Bass Solo:
G|----------------------------------|
D|---7-7--5-5--3-5--3-5-5--3-5------|
A|-5----------------------------5---|
E|----------------------------------|

After Solo:
G|---7-4-2------------------|
D|--------------------------|
A|-5-------5--8-10-10--5h---|
E|--------------------------|


Note: Listen to the song for exact timing.
Also, go right from the pre-solo straight to the bass solo.
This sounds right to me, but Email me with corrections.
Comments