Cky - Promiscous Daughter Chords & Tabs

 

Promiscous Daughter Chords & Tabs

Cky Chords & Tabs

Version: 1 Type: Bass Tab

Promiscous Daughter Bass Tab

   
VERSE   (00:01)
G|----------------------|
D|0000000000033333333333|
A|----------------------|x8
E|----------------------|

Bass solo  (00:51)this part is correct ive listenend to the song and he plays the 3rd fret on the E string
G|------------------------|
D|------------------------|
A|---77-55-3-5-3---5-3-5-3|x8
E|-5-------------3--------|
[ Tab from: http://www.guitartabs.cc/tabs/c/cky/promiscous_daughter_btab.html ]
CHORUS   (01:23)
G|--7-4-2--------------7-4-2---------|
D|0--------0-3-55-0--0--------0-3-55-|
A|-----------------------------------|x5
E|-----------------------------------|

VERSE  (01:53)
G|----------------------|
D|0000000000033333333333|
A|----------------------|x6
E|----------------------|

BRIDGE   (02:25)
G|---------------|
D|0~---------3~--|
A|---------------|x4
E|---------------|

CHORUS   (2:40) AND REPEAT TILL THE END
G|--7-4-2--------------7-4-2---------|
D|0--------0-3-55-0--0--------0-3-55-|
A|-----------------------------------|
E|-----------------------------------|