Cky - Plastic Plan Chords & Tabs

 

Plastic Plan Chords & Tabs

Cky Chords & Tabs

Version: 8 Type: Tab 0 ratings
1 star 2 stars 3 stars 4 stars 5 stars
comments

Plastic Plan Tab

   
#----------------------------------PLEASE NOTE---------------------------------#
#This file is the author's own work and represents their interpretation of the #
#song. You may only use this file for private study, scholarship, or research. #
#------------------------------------------------------------------------------##

                                  PLASTIC PLAN
                        As recorded by Camp Kill Yourself
                (From the 2002 Album INFILTRATE DESTROY REBUILD)

Words and Music by CKY


Gtr I (D G C F A D) - 'Deron Miller'
Gtr II (D G C F A D) - 'Chad Ginsburg'

   Intro
    Moderate Rock Q=125
   4/4
    Gtrs I, II
    PM------------|                     PM------------|
    E E E E E E E E   E E E E E E E E   E E E E E E E E   E E E E E E Q
||------------------|-----------------|-----------------|------------------||
||o-----------------|-----------------|-----------------|-----------------o||
||------------------|-----------------|-----------------|------------------||
||------------------|-4-2-------------|-----------------|-----------4-2----||
||o-0-0-0-0-0-0-0-0-|-----4-2-0-2-4-0-|-----------------|---5-4---2-------o||
||------------------|-----------------|-2-2-2-2-2-2-2-2-|-2-----5----------||


   Verse
    PM------------|                     PM------------|
    E E E E E E E E   E E E E E E E E   E E E E E E E E   E E E E E E Q   3x
||------------------|-----------------|-----------------|-----------------||
||o-----------------|-----------------|-----------------|----------------o||
||------------------|-----------------|-----------------|-----------------||
||------------------|-4-2-------------|-----------------|-----------4-2---||
||o-0-0-0-0-0-0-0-0-|-----4-2-0-2-4-0-|-----------------|---5-4---2------o||
||------------------|-----------------|-2-2-2-2-2-2-2-2-|-2-----5---------||


  PM------------|                     PM------------|
  E E E E E E E E   E E E E E E E E   E E E E E E E E   E E E E E E E E
|-----------------|-----------------|-----------------|------------------|
|-----------------|-----------------|-----------------|------------------|
|-----------------|-----------------|-----------------|------------------|
|-----------------|-4-2-------------|-----------------|------------------|
|-0-0-0-0-0-0-0-0-|-----4-2-0-2-4-0-|-----------------|-5-4---2-4-2-4-2--|
|-----------------|-----------------|-2-2-2-2-2-2-2-2-|-----5------------|


   Pre-Chorus
    PM----------------|                PM------------------------------|
    E E E E E E E E   E E E E E E Q    E E E E E E E E   E E E E E E E E
||------------------|----------------|-----------------|-----------------|
||o-----------------|----------------|-----------------|-----------------|
||------------------|----------------|-----------------|-----------------|
||------------------|----------------|-----------------|-----------------|
||o-0-0-0-0-0-0-0-0-|-0-0-2-0-2-0-4--|-----------------|-----------------|
||------------------|----------------|-2-2-2-2-2-2-2-2-|-2-2-2-2-2-2-2-2-|


  PM----------------------|
  E E E E E E E E   E E E E E E E E   E E E E E E E E   E E E E E E E E
|-----------------|-----------------|-----------------|-------------------||
|-----------------|-----------------|-----------------|------------------o||
|-----------------|-----------------|-----------------|-------------------||
|-----------------|-----------------|-----------------|-------------------||
|-----------------|---------5-5-4-4-|-2-2-----2-2-4-4-|-2-2-2-2-2-2-2-2--o||
|-3-3-3-3-3-3-3-3-|-3-3-3-3---------|-----5-5---------|-------------------||


   Chorus
    PM------------|                     PM------------|
    E E E E E E E E   E E E E E E E E   E E E E E E E E   E E E E E E Q
||------------------|-----------------|-----------------|-----------------||
||o-----------------|-----------------|-----------------|----------------o||
||------------------|-----------------|-----------------|-----------------||
||------------------|-4-2-------------|-----------------|-----------4-2---||
||o-0-0-0-0-0-0-0-0-|-----4-2-0-2-4-0-|-----------------|---5-4---2------o||
||------------------|-----------------|-2-2-2-2-2-2-2-2-|-2-----5---------||


 Verse
  PM------------|                     PM------------|
  E E E E E E E E   E E E E E E E E   E E E E E E E E   E E E E E E Q
|-----------------|-----------------|-----------------|-----------------|
|-----------------|-----------------|-----------------|-----------------|
|-----------------|-----------------|-----------------|-----------------|
|-----------------|-4-2-------------|-----------------|-----------4-2---|
|-0-0-0-0-0-0-0-0-|-----4-2-0-2-4-0-|-----------------|---5-4---2-------|
|-----------------|-----------------|-2-2-2-2-2-2-2-2-|-2-----5---------|

[ Tab from: http://www.guitartabs.cc/tabs/c/cky/plastic_plan_tab_ver_8.html ]
  PM------------|                     PM------------|
  E E E E E E E E   E E E E E E E E   E E E E E E E E   E E E E E E E E
|-----------------|-----------------|-----------------|------------------|
|-----------------|-----------------|-----------------|------------------|
|-----------------|-----------------|-----------------|------------------|
|-----------------|-4-2-------------|-----------------|------------------|
|-0-0-0-0-0-0-0-0-|-----4-2-0-2-4-0-|-----------------|-5-4---2-4-2-4-2--|
|-----------------|-----------------|-2-2-2-2-2-2-2-2-|-----5------------|


   Pre-Chorus
    PM----------------|                PM------------------------------|
    E E E E E E E E   E E E E E E Q    E E E E E E E E   E E E E E E E E
||------------------|----------------|-----------------|-----------------|
||o-----------------|----------------|-----------------|-----------------|
||------------------|----------------|-----------------|-----------------|
||------------------|----------------|-----------------|-----------------|
||o-0-0-0-0-0-0-0-0-|-0-0-2-0-2-0-4--|-----------------|-----------------|
||------------------|----------------|-2-2-2-2-2-2-2-2-|-2-2-2-2-2-2-2-2-|


  PM----------------------|
  E E E E E E E E   E E E E E E E E   E E E E E E E E   E E E E E E E E
|-----------------|-----------------|-----------------|-------------------||
|-----------------|-----------------|-----------------|------------------o||
|-----------------|-----------------|-----------------|-------------------||
|-----------------|-----------------|-----------------|-------------------||
|-----------------|---------5-5-4-4-|-2-2-----2-2-4-4-|-2-2-2-2-2-2-2-2--o||
|-3-3-3-3-3-3-3-3-|-3-3-3-3---------|-----5-5---------|-------------------||


   Chorus
    PM------------|                     PM------------|
    E E E E E E E E   E E E E E E E E   E E E E E E E E   E E E E E E Q   4x
||------------------|-----------------|-----------------|-----------------||
||o-----------------|-----------------|-----------------|----------------o||
||------------------|-----------------|-----------------|-----------------||
||------------------|-4-2-------------|-----------------|-----------4-2---||
||o-0-0-0-0-0-0-0-0-|-----4-2-0-2-4-0-|-----------------|---5-4---2------o||
||------------------|-----------------|-2-2-2-2-2-2-2-2-|-2-----5---------||


   Bass Solo
    PM------------|                     PM------------|
    E E E E E E E E   E E E E E E E E   E E E E E E E E   E E E E E E Q   3x
||------------------|-----------------|-----------------|-----------------||
||o-----------------|-----------------|-----------------|----------------o||
||------------------|-----------------|-----------------|-----------------||
||------------------|-4-2-------------|-----------------|-----------4-2---||
||o-0-0-0-0-0-0-0-0-|-----4-2-0-2-4-0-|-----------------|---5-4---2------o||
||------------------|-----------------|-2-2-2-2-2-2-2-2-|-2-----5---------||


 Pre-Chorus
                   2/4       4/4                                 2/4
  PM----------------------|
  E E E E E E E E   E E E E   E E E E E E E E   E E E E E E E E   E E E E
|-----------------|---------|-----------------|-----------------|----------|
|-----------------|---------|-----------------|-----------------|----------|
|-----------------|---------|-----------------|-----------------|----------|
|-----------------|---------|-----------------|-----------------|----------|
|-0-0-0-0-0-0-0-0-|-0-0-0-0-|-5-5-4-4-2-2-----|-2-2-4-4-2-2-2-2-|-2-2-2-2--|
|-----------------|---------|-------------5-5-|-----------------|----------|


   Out-Chorus
   4/4
    PM------------|                     PM------------|
    E E E E E E E E   E E E E E E E E   E E E E E E E E   E E E E E E Q
||------------------|-----------------|-----------------|------------------||
||o-----------------|-----------------|-----------------|-----------------o||
||------------------|-----------------|-----------------|------------------||
||------------------|-4-2-------------|-----------------|-----------4-2----||
||o-0-0-0-0-0-0-0-0-|-----4-2-0-2-4-0-|-----------------|---5-4---2-------o||
||------------------|-----------------|-2-2-2-2-2-2-2-2-|-2-----5----------||


Duration Legend
---------------
W - whole; H - half; Q - quarter; E - 8th; S - 16th; T - 32nd; X - 64th; a - acciaccatura
+ - note tied to previous; . - note dotted; .. - note double dotted
Uncapitalized letters represent notes that are staccato (1/2 duration)
Irregular groupings are notated above the duration line
Duration letters will always appear directly above the note/fret number it represents the
duration for.  Duration letters with no fret number below them represent rests.  Multi-
bar rests are notated in the form Wxn, where n is the number of bars to rest for.  Low
melody durations appear below the staff

Tablature Legend
----------------
 h   - hammer-on
 p   - pull-off
 b   - bend
 pb  - pre-bend
 r   - bend release (if no number after the r, then release immediately)
 /\  - slide into or out of (from/to "nowhere")
 s   - legato slide
 S   - shift slide
  - natural harmonic
[n]  - artificial harmonic
n(n) - tapped harmonic
 ~   - vibrato
 tr  - trill
 T   - tap
 TP  - trem. picking
 PM  - palm muting
\n/  - tremolo bar dip; n = amount to dip
 \n  - tremolo bar down
 n/  - tremolo bar up
/n\  - tremolo bar inverted dip
 =   - hold bend; also acts as connecting device for hammers/pulls
 <>  - volume swell (louder/softer)
 x   - on rhythm slash represents muted slash
 o   - on rhythm slash represents single note slash

Misc Legend
-----------
 |  - bar
||  - double bar
||o - repeat start
o|| - repeat end
*|  - double bar (ending)
 :  - bar (freetime)
 $  - Segno
 &  - Coda
Tempo markers -  = BPM(8/16=s8/s16), where s8 = swing 8ths, s16 = swing 16ths
Comments