Cky - Plastic Plan Chords & Tabs

 

Plastic Plan Chords & Tabs

Cky Chords & Tabs

Version: 6 Type: Tab 0 ratings
1 star 2 stars 3 stars 4 stars 5 stars
comments

Plastic Plan Tab

This song is the easiest to play on I.D.R. here it is the 100% correct version   (D-G-C-F-A-D)
[ Tab from: http://www.guitartabs.cc/tabs/c/cky/plastic_plan_tab_ver_6.html ]
intro\verses
|----------------------------------------------------------
|----------------------------------------------------------
|-2-2222222------------------------------------------------
|-2-2222222--2h4-2--------------4-444444444-----------4-2--
|-0-0000000--------4-2-0-2-4-2--4-444444444-4\5-4-0-2------
|-------------------------------2-222222222----------------
  * *******                       *********
Pre-chorus
|-------------|--------------------------------------------
|-------------|--------------------------------------------
|-------------|--2-2222222---------------------------------
|-------------|--2-2222222----------------4-44444444444444-
|-5-4-0-2-4-2-|-00-0000000-0-2-0-2-0-2\4--4-44444444444444-
|-------------|---------------------------2-22222222222222-
                   *******                  **************

|-----------------------------------------
|-----------------------------------------
|----------------------------------------- x2
|-555555555555-77-66-44-22-44-66-44444444-
|-555555555555-55-44-22-00-22-44-22222222-
|-333333333333----------------------------
  ************
Chorus
|------------------------------------------------------|---------------
|------------------------------------------------------|---------------
|-2-2222222--------------------------------------------|---------------
|-2-2222222-2h4-2-------------4-44444444-----------4-2-|---------------
|-0-0000000-------4-2-0-2-4-2-4-44444444-4\5-4-0-2-----|-5-4-0-2-4-2-0-
|-----------------------------2-22222222---------------|---------------
    *******                     ********


thats it... just listen to the song and put these parts where they go.
...Mark Davidson...
Comments