Cky - Plastic Plan Chords & Tabs

 

Plastic Plan Chords & Tabs

Cky Chords & Tabs

Version: 5 Type: Tab 0 ratings
1 star 2 stars 3 stars 4 stars 5 stars
comments

Plastic Plan Tab

-|---------------------------------------------------|------------------------
-|---------------------------------------------------|------------------------
-|---------------------------------------------------|------------------------
-|------------------------------------------------4-2|------------------------
-|-77777777--/9-7---------------44444444-/5-4---2----|------------------------
-|-55555555-------9-7-5-7-/9-5--22222222------5------|------------------------
   ........                     ........   
                                                  
MAIN RIFF Variation?, at
0:39 "but I won't be caught dead" and 1:42 "I'm aiming for you all"
-|---------------------------------------------------------------------------
-|---------------------------------------------------------------------------
-|---------------------------------------------------------------------------
-|---------------------------------------------------------------------------
-|-77777777--/9-7---------------44444444-/5-4---2-4--2-4--2------------------
-|-55555555-------9-7-5-7-/9-5--22222222------5------------------------------
   ........                     ........
[ Tab from: http://www.guitartabs.cc/tabs/c/cky/plastic_plan_tab_ver_5.html ]
PRE-CHORUS "One day I'll try.."
-|-----------------------------------------------------------------------------------|
-|-----------------------------------------------------------------------------------|
-|-----------------------------------------------------------------------------------|
-|-----------------------------------------------------------------------------------|
-|-77777777------------4-4444444444444444--555555555555-55-44-22----22-44-22222222---|
-|-55555555--5-7-5-7-5---2222222222222222--333333333333----------55------------------|
   ........              ................  ............                                         
                                                              

BRIDGE1 2:53 - Guitar 1 plays MAIN RIFF and Guitar 2 plays:
-|----------------------------------------------------------------------------
-|----------------------------------------------------------------------------
-|----------------------------------------------------------------------------
-|------------------------------7-6-------------------------------------------
-|-----7-4------7-4------7-4--------7--------4-0-----4-0----5-4-0-2-4-2-4-----
-|-5-5------5-5------5-5------5----------2-2-----2-2------2-------------------

BRIDGE2 3:09
-|-------------------------------------------|
-|-------------------------------------------|
-|-------------------------------------------|
-|-------------------------------------------|
-|-555555555555-55-44-22----22-44-22222222---|
-|-333333333333----------55------------------|
Comments