Cky - Plastic Plan Chords & Tabs

 

Plastic Plan Chords & Tabs

Cky Chords & Tabs

Version: 4 Type: Tab 0 ratings
1 star 2 stars 3 stars 4 stars 5 stars
comments

Plastic Plan Tab

CKY
Plastic Plan
Infiltrate Destroy Rebuild
Tuning: Standard
[ Tab from: http://www.guitartabs.cc/tabs/c/cky/plastic_plan_tab_ver_4.html ]
------------------------------------------------------------------------------
------------------------------------------------------------------------------
------------------------------------------------------------------------------
-55555555-----------------222222222----------2-0------------------------------
-55555555--3-2---0-2-0----222222222--2-3---0----------------------------------
-33333333------3-------3--000000000------3------------------------------------


------------------------------------------------------------------------------
------------------------------------------------------------------------------
------------------------------------------------------------------------------
-3333333333333333--2222222222222222-------------------------------------------
-3333333333333333--2222222222222222--3-3--2-2--0-0-------0-0-0-0-0------------
-1111111111111111--0000000000000000-----------------3-3-----------------------
Comments