Cky - Plastic Plan Chords & Tabs

 

Plastic Plan Chords & Tabs

Cky Chords & Tabs

Version: 2 Type: Tab 0 ratings
1 star 2 stars 3 stars 4 stars 5 stars
comments

Plastic Plan Tab

Intro/Verse/Chorus 
-|------------------------------------------------------------------------|- 
-|------------------------------------------------------------------------|- 
-|------------------------------------------------------------------------|- 
-|--66-66-66-66-----------------------33-33-33-33-----------------3-1-----|- 
-|--66-66-66-66--6/8/6----------------33-33-33-33-----3--1-----1----------|- 
-|--44-44-44-44---------8-6-6/8-4-----11-11-11-11----------3--------------|- 
[ Tab from: http://www.guitartabs.cc/tabs/c/cky/plastic_plan_tab_ver_2.html ]
Pre-chorus 
-|--------------------------------------------------------------------------|- 
-|--------------------------------------------------------------------------|- 
-|--------------------------------------------------------------------------|- 
-|--6----------------------3---4---1111-1010---88---66-------88-----666666--|- 
-|--6----------------------3---4---1111-1010---88---66-------88-----666666--|- 
-|--4---4-6-4-6-4-6/8------1---2----9-9--8-8---66---44-------66-----444444--|- 
   10x                    16x 12x
Comments