Cky - Plastic Plan Chords & Tabs

 

Plastic Plan Chords & Tabs

Cky Chords & Tabs

Version: 2 Type: Bass Tab 0 ratings
1 star 2 stars 3 stars 4 stars 5 stars
comments

Plastic Plan Bass Tab

Riff 1:
G-------------------------------------------------|
D----------4-2--------------------------------4-2-|
A-00000000-----4-2-0-2-4-0----------0-5-4-0-2-----|
E--------------------------22222222---------------|
[ Tab from: http://www.guitartabs.cc/tabs/c/cky/plastic_plan_btab_ver_2.html ]
Riff 2:
G-------------------------------------------------------------------------|
D-------------------------------------------------------------------------|
A-00000000-0-2-0-2-0-2-4-----------------------55-44-22-00-22-44-22222222-|
E------------------------222222222222-33333333----------------------------|

Riff 3:
G-----------------------------------------|
D-----------------------------------------|
A--------------55-44-22-00-22-44-22222222-|
E-222222222222----------------------------|

Order:
Riff 1 x6
Riff 2 x2
Riff 1 x4
Riff 2 x2
Riff 1 x6
Riff 3 x1
Riff 1 until fade out

This is 100% right!
Comments