Cky - Plastic Plan Chords & Tabs

 

Plastic Plan Chords & Tabs

Cky Chords & Tabs

Version: 1 Type: Bass Tab 0 ratings
1 star 2 stars 3 stars 4 stars 5 stars
comments

Plastic Plan Bass Tab

Song: Plastic Plan
Artist: CKY
Album: Infiltrate Destroy Rebuild
Tabbed By: Ryan Kehoe (brtnboarder5@yahoo.com)

This song is pretty easy once you get the rhythm down. The p stands for pull and is played
in slap style.

Intro/Verse
G|---------------------------------------------------------------------------|
D|----------2p-------------------------------2p------------------------------|
A|-------------2p---0-2--------------2-0---0---------------------------------|
E|-33333333-------3-----3-00000000-3-----3-----------------------------------|
[ Tab from: http://www.guitartabs.cc/tabs/c/cky/plastic_plan_btab.html ]
Chorus(played 2x)
G|---------------------------------------------------------------------------|
D|---------------------------------------------------------------------------|
A|---------------------2---------------3-2----------22-----------------------|
E|-333333333-3-5-3-5-3---0(16x)-1(12x)-----55-33-55----55555555-3------------|

Bridge(after small guitar solo
G|---------------------------------------------------------------------------|
D|---------------------------------------------------------------------------|
A|--------------3-2----------22----------------------------------------------|
E|-111111111111-----55-33-55----55555555-------------------------------------|
Comments