Cky - Lost In Contraception Chords & Tabs

 

Lost In Contraception Chords & Tabs

Cky Chords & Tabs

Version: 1 Type: Tab 0 ratings
1 star 2 stars 3 stars 4 stars 5 stars
comments

Lost In Contraception Tab

   
Lost In A Contraption -- cKy
Mike Dude Rocks For Putting These Tabs On GTU!!!!

Tuned down one step (DGCFAD)
All notes sound one step lower than written
h=hammer on

Guitar 1
Intro/Verse
----------------------------------|
----------------------------------|
----------------------------------|
---4---4---4---4---4---4---4---4--|
----------------------------------|
-2---2---2---2---2---2---2---2----|

Guitar 2
Intro Riff
   F#
------------------------------------8--7----------7-8-7----------------------|
-9-10-9---------------9--10--9--10-------10-9--10-------9-10--9-10-9---------|
-------10-11----10-11-----------------------------------------------11-10-11-|
-----------------------------------------------------------------------------|
-----------------------------------------------------------------------------|
-----------------------------------------------------------------------------|

Verse

I was lost in a contraption
Took me days to find direction
Suddenly the moments collide

Pre-Chorus

Guitar 1
----------------------------------------------|
----------------------------------------------|
----------------------------------------------|
----------------------------------------------|
----------------------------------------------|
-2-5-4--3-4-5-4-3--4-5--2-5-4--3-4-5-4-3--4-5-|
Play 4x

Guitar 2
--------------20-18-16------20-18-16--20-18-16-| *
-----------------------------------------------|
-----------------------------------------------|
-----------------------------------------------|
-----------------------------------------------|
-----------------------------------------------|
*You know the timing and rhythm

Verse 2
[ Tab from: http://www.guitartabs.cc/tabs/c/cky/lost_in_contraception_tab.html ]
Guitar 2
   F#
-------------------------------------------------------|
-8-9-8-----------8-9-8-----------8-9-12-11-9-8---------|
-------9-10-9h10-------10-9-9-10---------------10-9-10-|
-------------------------------------------------------|
-------------------------------------------------------|
-------------------------------------------------------|

Finally found the fault in father
Family blood dilutes the water
I was dazed in my direction tonight

Chorus

Guitar 1
------------------------------------------------|
------------------------------------------------|
------------------3---5/8-------------3---5/8---|
--------------------------6---------------------|
--------------------------8-------------------6-|
------------------------------------------------|

Guitar 2
-----------------------------------------|
-----------------------------------------|
-------11-11-9--8------------------------|
-1---------------------------------------|
-----------------------------------------|
-----------------------------------------|

-----------------------------------------|
-----------------------------------------|
---11-11--11-11-9-8----------------------|
-1---------------------------------------|
-----------------------------------------|
-----------------------------------------|

Pre-Chorus 2

Photographed when he hit the ground
No one minds
That's my blind side

Verse 3
Guitar 2- Intro Riff

I was lost and you're to blame
A man of doubt gave me a name
The obvious was too hard to find

Chorus
To watch me try is out of line
The sun will shine

Pre-Chorus

(BACKGROUND VOCALS)
Photographed when he hit the ground
No one minds
That's my blind side

Bridge

---------------------------|
---------------------------|
-------------5-------------|
----------------6-5-3------|
-3-6-5-----3-----------6---|
-------6-3-----------------|

*Thanks Tom!

Play 8x

Chorus

To watch me die
Is out of line
The sun will still shine
What's mine is mine
The sun will still shine

End on Guitar 1's Pre-Chorus Riff

E-mail Me At FooFighters1575@Aol.com If You Have Any Cky Tabs, Laterz!!!
Comments