Cky - Lost In A Contraption Chords & Tabs

 

Lost In A Contraption Chords & Tabs

Cky Chords & Tabs

Version: 1 Type: Bass Tab 0 ratings
1 star 2 stars 3 stars 4 stars 5 stars
comments

Lost In A Contraption Bass Tab

               Song:Lost in a Contraption
               Band:CKY
          
               Tabbed By:Bucko (buco@email.com)
          
                  This was a very easy song to tab.
          
          Riff 1:
          
          G:---------------------------------
          D:---------------------------------
          A:---------------------------------
          E:-0-------0-------0-------0-------
          
          Riff 2:
          
          G:---------------------------------
          D:---------------------------------
          A:---------------------------------
          E:-0---3---2---1-2-3---2---1---2-3-
          
          Riff 3:
            sustain------------------------> sustain--------------------->
          G:--------------------------------------------------------------
          D:-0------------------------------(2)---------------------------
          A:--------------------------------------------------------------
          E:---------------------------------0----------------------------
          
          Riff 4:
          
          G:---------------------4---0-------
          D:-----0---------------------4-2-0-
          A:-2-------4-2-----2---------------
          E:-------------2-------------------
          
          Song Order:
          
          Riff 1 x8
          Riff 2 x4
          Riff 1 x6
          Riff 3 x2
          Riff 2 x4
          Riff 1 x8
          Riff 3 x2
          Riff 2 x4
          Riff 4 x8
          Riff 3 x4
          Riff 2 x1
[ Tab from: http://www.guitartabs.cc/tabs/c/cky/lost_in_a_contraption_btab.html ]
Comments