Cky - Knee Deep Chords & Tabs

 

Knee Deep Chords & Tabs

Cky Chords & Tabs

Version: 4 Type: Tab 0 ratings
1 star 2 stars 3 stars 4 stars 5 stars
comments

Knee Deep Tab

Tuning (Usual Cky tuning)

|-------------------------------------|
|-------------------------------------|
|----(9)-9----------------------------|
|---9------9-7-7/5-7-7-7-7-5--7-7-7-5-|
|-7------------------5-5-5----3-3-3---|
|-------------------------------------|

Distortion starts at the first power chord   
|-------------------------------------|
|-------------------------------------|
|----(9)-9----------------------------|
|---9------9-7-7/5-7-7-7-7-5--7-7-7-5-|
|-7------------------5-5-5----3-3-3---|
|-0-----------------------------------|

Keep distortion on
|-------------------------------------|
|-------------------------------------|
|----(9)-9----------------------------|
|---9------9-7-7/5-7-7-7-7-5--7-7-7-5-|
|-7------------------5-5-5----3-3-3---|
|-0-----------------------------------|

|-------------------------------------|
|-------------------------------------|
|----(9)-9----------------------------|
|---9------9-7-7/5-7-7-7-7-5--7-7-7-5-|
|-7------------------5-5-5----3-3-3---|
|-0-----------------------------------|
Distortion off

Guitar 1
|--------------------------|
|--------------------------|
|--------------------------|
|----------7-7-7-5-7-7-7-5-|
|-2-2------5-5-5-5-3-3-3-3-|
|-0-0------5-5-5-5-3-3-3-3-|
Guitar 2
|-------------------------------------|
|-------------------------------------|
|----(9)-9----------------------------|
|---9------9-7-7/5-7-7-7-7-5--7-7-7-5-|
|-7------------------5-5-5----3-3-3---|
|-0-----------------------------------|
Do that four times

|---------------------------------------------|
|---------------------------------------------|
|----(9)-9---------7--7-0-0-7/9-9-9-7/9-9-----|
|---9------9-7-7/5------------------------9---|
|-7-----------------------------------------7-|
|-0-------------------------------------------|

|-------------------------------------|
|-------------------------------------|
|----(9)-9----------------------------|
|---9------9-7-7/5-7-7-7-7-5--7-7-7-5-|
|-7------------------5-5-5----3-3-3---|
|-0-----------------------------------|


|--------------------------|
|--------------------------|
|--------------------------|
|----------7-7-7-5-7-7-7-5-|
|-2-2------7-7-7-5-7-7-7-5-|
|-0-0------5-5-5-5-3-3-3-3-|
Do that two times
[ Tab from: http://www.guitartabs.cc/tabs/c/cky/knee_deep_tab_ver_4.html ]
Guitar 1
|-------------------------|
|-------------------------|
|-------------------------|
|-------------------------|
|-4-----4-----------------|
|-2-----2-----------------|
Guitar 2
|-------------------------|
|-------------------------|
|-------------------------|
|---2-4-------2-4-2-6-4-2-|
|-4-----4---4-------------|
|-2-----2-2---------------|
Do that three times,last two
times with distortion,keep
distortion on

|-------------------------------------------------|
|-------------------------------------------------|
|-------------------------------------------------|
|--------2---2-4-2-6-4-2----------2---2-4-2-6-4-2-|
|-7-6-4----4------------------------4-------------|
|-5-4-2-2-----------------5-3-2-2-----------------|

|-------------------------|
|-------------------------|
|-------------------------|
|---2-4-------2-4-2-6-4-2-|
|-4-----4---4-------------|
|-2-----2-----------------|
Do that twice

|-------------------------------------------------|
|-------------------------------------------------|
|-------------------------------------------------|
|--------2---2-4-2-6-4-2----------2---2-4-2-6-4-2-|
|-7-6-4----4------------------------4-------------|
|-5-4-2-2-----------------5-3-2-2-----------------|

|--------------------------|
|--------------------------|
|-----12/9-9-7-0-7-0-7---5-|
|--------------------5---7-|
|-7------------------------|
|-0------------------------|
Do this twice

|--------------------------|
|--------------------------|
|--------------------------|
|----------7-7-7-5-7-7-7-5-|
|-2-2------7-7-7-5-7-7-7-5-|
|-0-0------5-5-5-5-3-3-3-3-|
Do this twice

|-------------------------|
|-------------------------|
|-------------------------|
|---2-4-------2-4-2-6-4-2-|
|-4-----4---4-------------|
|-2-----2-2---------------|
Do this twice

|------------------------------------------------|
|------------------------------------------------|
|------------------------------------------------|
|--------2---2-4-2-6-4-2---------2---2-4-2-6-4-2-|
|-7-6-4----4-----------------------4-------------|
|-5-4-2-2----------------5-3-2-2-----------------|

Guitar 1
|-------------------|
|-------------------|
|-------------------|
|---------7-------5-|
|-2-------5-------3-|
|-0-----------------|
Guitar 2
|------------------------------------|
|------------------------------------|
|----(9)-9---------------------------|
|---9------9-7-7/5-7-7-7-7-5-7-7-7-5-|
|-7------------------5-5-5---3-3-3---|
|-0----------------------------------|
Do this twice

|--------|
|--------|
|--------|
|-2------|
|-2------|
|-0------|

2005 by Kevin Johnson (elementos as you know)
Comments