Cky - Knee Deep Chords & Tabs

 

Knee Deep Chords & Tabs

Cky Chords & Tabs

Version: 2 Type: Tab 0 ratings
1 star 2 stars 3 stars 4 stars 5 stars
comments

Knee Deep Tab

Knee Deep -- cKy
By Deron Miller from Camp Volume One
Tab by John Houx 

This one took me a while...

Tuned down one whole step (low to high: DGCFAD)

Intro/Main Riff
-------------------------------------------------
-------------------------------------------------
------9b11r9-------------------------------------
-----9-------9--7-7--5/7-7--7--7p5---7--7--7p5---
-7-----------------------5--5--5-----3--3--3-----
-------------------------------------------------

-------------------------------------------------
-------------------------------------------------
------9b11r9-------------------------------------
-----9-------9-7-7-5p0-7-7--7--7p5---7--7--7p5---
-7---------------------5-5--5--5-----3--3--3-----
-0-----------------------------------------------

Verse

Guitar 1
---------------------------------------------------
---------------------------------------------------
---------------------------------------------------
-------------------7---7--7-5--5-5-7---7--7-5--5-5-
-2----2--2-2---2-2-5---5--5-5--5-5-3---3--3-3--3-3-
-0----0--0-0---0-0-5---5--5-5--5-5-3---3--3-3--3-3-

Guitar 2
---------------------------------------------------
---------------------------------------------------
-----9b11r9----------------------------------------
----9-------9--7-7--5-7---7--7--7p5-5--7--7--7p5-5-
-2------------------------5--5--5---5--3--3--3---3-
-0-------------------------------------------------

Play 4x, then...

(Guitar 1 only)
Some people don't know, don't know what is wrong so they're knee deep,
Knee deep in sorrow

Repeat 4x

Lead 1 (Guitar 2)
--------------------------------------------------------
--------------------------------------------------------
------9b11r9-------------/7----7-0-0--7/9-9-9-7/9-9-----
-----9-------9--7-7--5/7----------------------------9---
-7----------------------------------------------------7-
--------------------------------------------------------
[ Tab from: http://www.guitartabs.cc/tabs/c/cky/knee_deep_tab_ver_2.html ]
-------------------------------------------------
-------------------------------------------------
------9b11r9-------------------------------------
-----9-------9--7-7--5/7-7--7--7p5---7--7--7p5---
-7-----------------------5--5--5-----3--3--3-----
-------------------------------------------------

(Guitar 1 only)
Some people don't know, don't know what is wrong so they're knee deep,
Knee deep in sorrow
2x

Bridge pt 1

Guitar 1
-----------------------------
-----------------------------
-----------------------------
-----------------------------
-4-------4-------------------
-2-------2-------------------

Guitar 2
-----------------------------
-----------------------------
-----------------------------
----2h4---------2-4-2--6-4-2-
-4-------4----4--------------
-2-------2--2----------------

Bridge Part 2
Guitar 2
----------------------------------------------------------
----------------------------------------------------------
----------------------------------------------------------
----2h4-----2---2-4-2--6-4-2-----2h4-----2---2-4-2--6-4-2-
-4-------4----4---------------4-------4----4--------------
-2-------2--------------------2-------2-------------------

----------------------------------------------------------
----------------------------------------------------------
----------------------------------------------------------
------------2---2-4-2--6-4-2-------------2---2-4-2--6-4-2-
-7--6--4------4----------------------------4--------------
-5--4--2-2--------------------5--3--2-2-------------------

Repeat once more

Verse 3
With reverb etc...
---------------------------------
---------------------------------
---------------------------------
-------12\9-9--7-0--7-0-5------7-
-7----------------------7------5-
-0-------------------------------

Some people don't know, don't know what is wrong so they're knee deep,
Knee deep in sorrow
2x

Back to distorted verse

Some people don't know, don't know what is wrong so they're knee deep,
Knee deep in sorrow
2x

Repeat Bridge Part 2

Outro

Guitar 1
---------------------------------------------------
---------------------------------------------------
---------------------------------------------------
-------------------7---------------5---------------
-2-----------------5---------------3---------------
-0-------------------------------------------------

Guitar 2
Repeat "Lead 1"

Play 2x, end on a low E power chord
Comments