Cky - Inhuman Creation Station Chords & Tabs

 

Inhuman Creation Station Chords & Tabs

Cky Chords & Tabs

Version: 6 Type: Tab 0 ratings
1 star 2 stars 3 stars 4 stars 5 stars
comments

Inhuman Creation Station Tab

Since Every other tab of this song is bad i tried to figure it out myself
and i came up w/ this

Drop d Tuning

----------------------------------------
----------------------------------------
----------------------------------------
-----3--5p3-------0-----0---------------4x
-/5---------------0-----0---------------
-------------7\---000---000-------------

Then
--------------------------
--------------------------
-----------2-0------------
---2-3-2-------3-2-3------1x
-3-------5----------------
--------------------------

Go through that till the verse is over. On the last time play the second part twice

Then
---------------------------
---------------------------
---------------------------
--------0-2-3-00--0--------8x
--0-3-------------0--------
------------------000------
[ Tab from: http://www.guitartabs.cc/tabs/c/cky/inhuman_creation_station_tab_ver_6.html ]
then
-------------------------
-------------------------
-------------------------
------0-2------0-2-------1x
-0-3-------0-3-----------
-------------------------

Chorus
-------------------------------------------------------------
-------------------------------------------------------------
-3-3-3-3-3-3-3-3-3-3-3-3--7-7-7-7-7-7-7-7-7-7-7-7------------
-3-3-3-3-3-3-3-3-3-3-3-3--7-7-7-7-7-7-7-7-7-7-7-7------------
-1-1-1-1-1-1-1-1-1-1-1-1--5-5-5-5-5-5-5-5-5-5-5-5------------
-------------------------------------------------------------

Occasionally play in beetween parts
----------------------
----------------------
--x-5--x-5------------
--x-5--x-5------------
--x-3--x-3------------
----------------------

then (muted)
-----------------------------------------------------
-----------------------------------------------------
-3-3-3-3-3-3-3-3-3-3-3-3--7-7-7-7-7-7-7-7-7-7-7-7----
-3-3-3-3-3-3-3-3-3-3-3-3--7-7-7-7-7-7-7-7-7-7-7-7----
-1-1-1-1-1-1-1-1-1-1-1-1--5-5-5-5-5-5-5-5-5-5-5-5----
-----------------------------------------------------

Thats pretty much every part it sounds fine to me !
Comments