Cky - Inhuman Creation Station Chords & Tabs

 

Inhuman Creation Station Chords & Tabs

Cky Chords & Tabs

Version: 2 Type: Tab 0 ratings
1 star 2 stars 3 stars 4 stars 5 stars
comments

Inhuman Creation Station Tab

Tabbed by Zack

I think it should be tuned to a dropped DPlay this riff 4 times before going into the next riff. 
e|---------------------------------------------------------------------------| 
B|---------------------------------------------------------------------------| 
G|------------7-7------------------------------------------------------------| 
D|---3-5p3----7-7------------------------------------------------------------| 
A|-5----------5-5------------------------------------------------------------| 
E|---------5-----------------------------------------------------------------| 


Play this once, then go into the first riff again. 
e|---------------------------------------------------------------------------| 
B|---------------------------------------------------------------------------| 
G|-----------------------------------7-7-------------------------------------| 
D|---2-3p2-------7-5-3------3-5p3----7-7-------------------------------------| 
A|-3-------3--0-----------5----------5-5-------------------------------------| 
E|---------------------5-----------5-----------------------------------------| 

[ Tab from: http://www.guitartabs.cc/tabs/c/cky/inhuman_creation_station_tab_ver_2.html ]
Riff 3 
e|---------------------------------------------------------------------------| 
B|---------------------------------------------------------------------------| 
G|---------------------------------------------------------------------------| 
D|------2-3-2---------------2-3-2--------------------------------------------| 
A|--0-3--------3--5----0-3--------0-5----------------------------------------| 
E|---------------------------------------------------------------------------| 


Chorus (each chord for 8 beats) 
e|---------------------------------------------------------------------------| 
B|---------------------------------------------------------------------------| 
G|----7----------------------------------------------------------------------| 
D|-8--7----------------------------------------------------------------------| 
A|-8--5----------------------------------------------------------------------| 
E|-6-------------------------------------------------------------------------| 

This song is very complicated at first, but its gets easy after a while. If you want to see it played watch CKY 3 and see Deron play it.

Comments