Cky - Inhuman Creation Station Chords & Tabs

 

Inhuman Creation Station Chords & Tabs

Cky Chords & Tabs

Version: 1 Type: Tab 0 ratings
1 star 2 stars 3 stars 4 stars 5 stars
comments

Inhuman Creation Station Tab

			               Camp Kill Yourself
				            (CKY)
                                                   "Inhuman Creation Station
============================Note=================================================
Standard Tuning

this song is on cky3 while they're skateboarding

d---------------------------------------------|
a--5/-9--11h-9h-9/---5-5-5--5-5-5----|
e---------------------------------------------|

d------------------------7---7-----|
a---3/--5--7h-5h--5--3---------|
e-----------------------------------|

g---------------------------------|  |-----------------|    |------------------|
d------0-2-3-2-0----0-0-0---0-0-0-|  |-----2-3-----2-3-| or |---0-2-3----0-2-3-|
a-0--3----------------------------|  |-0-3-----0-3-----|    |-3--------3-------|
e---------------------------------|  |-----------------|    |------------------|

[ Tab from: http://www.guitartabs.cc/tabs/c/cky/inhuman_creation_station_tab.html ]
d--3-3-3-3-3-3-3-3-3-3-3-3-3---5-5/--7-7-7-7-7-7-7--|--3-3--2-2--|
a--1-1-1-1-1-1-1-1-1-1-1-1-1---3-3/--5-5-5-5-5-5-5--|--1-1--0-0--|
e-------------------------------------------------------------------|------------|

 (play in palm mute and fast)
d-----------------------------------------------------------------------------------|
a--1-1-1-1-1-1-1-1-1-1-1-1-1-1-1-1-1-0-0-0-------------3-3-3-5-5-5-5-5-5-5-5-5-5-5--|
e------------------------------------------3-3-3-1-1-1------------------------------|

                                        
d-12-12-12--10--10--10--7--10---12-12-12^--10--10--10--7--10----12-12-12--10--10--10--7x7--5-5-6-6|
a-10-10-10---8---8---8--5---8---10-10-10^---8---8---8--5---8----10-10-10---8---8---8--5x5--3-3-4-4|

e-mail me if i made any mistakes or for any comments at: JesseCKY@aol.com

===========================================Note====================================================
Some of the verses are repeated more than once so listen to the song a bunch of times to know when they are repeated. And I would like to say Hillcrest middle school, we had a lot of laughs and a lot of fun, so i just want to say this....."if you like pina calata, and being caught in the rain....and theres some more to that song but i don't really know it, oh well its kinda gay.
Comments