Cky - Inhuman Creation Station Chords & Tabs

 

Inhuman Creation Station Chords & Tabs

Cky Chords & Tabs

Version: 2 Type: Bass Tab 0 ratings
1 star 2 stars 3 stars 4 stars 5 stars
comments

Inhuman Creation Station Bass Tab

   
Riff 1:
g-----------------|
d---3-5-----------|
a-5----30---------|
e---------000-000-|

Riff 2:
g-----------2-0----|
d---2-320------32--|
a-3------30------3-|
e------------------|

Riff 3:
g-----------|
d---2333----|
a-03--------|
e-------000-|

Riff 4:
g----------|
d---23--23-|
a-03--03---|
e----------|
[ Tab from: http://www.guitartabs.cc/tabs/c/cky/inhuman_creation_station_btab_ver_2.html ]
Riff 5:
g-------------------------------------------------------------------|
d-------------------------------------------------------------------|
a-------------------------------------------------------------------|
e-11111111111111111111111111111111-00000000000000000000000000000000-|

Order:
Riff 1 x4
Riff 2 x1
Riff 1 x6
Riff 2 x1
Riff 1 x6
Riff 2 x1
Riff 1 x1
Riff 2 x1
Riff 1 x1
Riff 3 x8
Riff 4 x1
Riff 5 x4
Riff 3 x4
Riff 4 x1
Riff 1 x4
Riff 2 x1
Riff 1 x6
Riff 2 x1
Riff 1 x1
Riff 2 x1
Riff 1 x1
Riff 3 x8
Riff 4 x1
Riff 5 x4
Repeated e-00000000...
Riff 3 x8
Riff 4 x1
Comments