Cky - Infiltrate Destroy Rebuild Chords & Tabs

 

Infiltrate Destroy Rebuild Chords & Tabs

Cky Chords & Tabs

Version: 1 Type: Bass Tab 0 ratings
1 star 2 stars 3 stars 4 stars 5 stars
comments

Infiltrate Destroy Rebuild Bass Tab

   
Band: Cky
Album: Infiltrate, Destroy, Rebuild
TheMutts (halo2k@forerunners.org)

Note: I would like to thanks to authors for these tabs. NOTE: I (TheMutts)
do not take credit at all for these tabs. I simply compiled the most accurate
tabs and put this album together so you can find all the songs in here.

Tracks
1. Escape From Hellview
2. Flesh Into Gear
3. Sink Into the Underground
4. Attached at the Hip
5. Frenetic Amnesic
6. Shock & Terror
7. Plastic Plan
8. Inhuman Creation Station
9. Sporadic Movement
10. Close Yet Far

////////////////////////////////////////////////////////////////////////////

1. Escape From Hellview

Chorus
G|----2---------23---------------------20h2---57p5---0h2---5h6--------------------|
D|0-0--00-0---00-3-2-5-3--03------------------------------------------------------|
A|-----------------------------------------3----3----3------3---------3-----3-------|
D|----------------------------------------------------------------------------------|

G|----2---------2-3---------------------20h27-5-5----5----7-5----6--------------|
D|0-00--0-0----00-3-2-5-3-0-3---------------------------------------------------|
A|-----------------------------------------3------3-------3----3------3---3-------|
D|--------------------------------------------------------------------------------|

Verse
G|---------------|
D|---------------|
A|----1---0------|
D|0--------------|

Pre Verse
G|----------------------------------------------------------------------------------------------------------|
D|-------------------------------------------------------------------------------------------------------2--|
A|--------------------------------------------------   11-11-11-31-00-00-03-0------------------------|
D|0--0-0--0-00-00-00-00-00-0--0------------------------------------------------------------------------|

Bridge 				   1st (2nd just rings on 4)
G|-----------------------------------|----|
D|-------8-------8-9---------6-----|6-----|
A|-66--6-6-6----6-6-9-8--9-4-|-----------|
D|-----------------------------------|----|

Order:
Chorus 1 x
Verse 6x
Pre-chorus 2x
Chours 2x
Verse 4x
Pre-chorus 2x
Chorus 2x
Bridge 6x
Pre-chorus 4x
Chorus 4x

2. Flesh Into Gear

|||----------------|---------------|----------------|----------------|
|4|----------------|---------------|----------------|----------------|
|4|--------------2-|4-4-4-4-4-4-4--|--------------2-|4-4-4-4-4-4-4-4-|
|||0-0-0-0-0-0-0---|-------------2-|0-0-0-0-0-0-0-0-|----------------|


|-----------------|----------------|3x
|----------------|---------------|
|--------------2-|4-4-4-4-4-4-4--|
|-0-0-0-0-0-0-0---|--------------2-|


|-----------------|----------------|3x
|----------------|---------------|
|----------------|---------------|
|-5-5-5-5-5-5-7-5-|4-4-4-4-4-4-2-0-|


|-----------------|----------------|3x
|----------------|---------------|
|--------------2-|4-4-4-4-4-4-4--|
|-0-0-0-0-0-0-0---|--------------2-|


|-----------------|----------------|3x
|----------------|---------------|
|----------------|---------------|
|-5-5-5-5-5-5-7-5-|4-4-4-4-4-4-2-0-|


||----------------|----------------|---------------|---------------|
||64-----64-4--46-|4------64-4--46-|46-----64-4--46|4--------------|
||--4-4----7--7---|-72-2----7--7---|--4-4----7--7--|-72-2---242---2|
||----------------|----------------|---------------|-------4---420-|


||----------------|----------------|64-------------|---------------|
||-------64-4--46-|47-----64-4--46-|-------64-4--46|4------64-4--46|
||76-------7--7---|--2-2----7--7---|--4-4----7--7--|-72-2----7--7--|
||--5-5-----------|----------------|---------------|---------------|

                                                     ~~
||----------------|----------------|---------------|6--4----------|
||46-----64-4--46-|4---------------|-------64-4--46|----6--4------|
||--4-4----7--7---|-72-2---242-----|76-------7--7--|------7--42---|
||----------------|-------4---4202-|--5-5----------|-----------42-|


|-----------------|----------------|3x
|----------------|---------------|
|----------------|---------------|
|-5-5-5-5-5-5-7-5-|4-4-4-4-4-4-2-0-|


|-----------------|----------------|3x
|----------------|---------------|
|--------------2-|4-4-4-4-4-4-4--|
|-0-0-0-0-0-0-0---|--------------2-|

[fadeout]
|-----------------|----------------|
|-----------------|----------------|
|---------------2-|4-4-4-4-4-4-4---|
|-0-0-0-0-0-0-0---|--------------2-|


|-----------------|----------------|
|-----------------|----------------|
|---------------2-|4-4-4-4-4-4-4---|
|-0-0-0-0-0-0-0---|--------------2-|

~: vibrato
remember.. 3x means to play it 4 times!


3. Sink Into the Underground

Main
------------------------------------------------------------|
---------22--00---------------------------------------------|
--00--44-------44-2-0-4-0------44--22--00-------------4-2-0-|
22---------------------------00-------------22--00--2-------|

 Verse
"I can't breathe I can't get this out
----------------------|
----------------------|  repeat
----------------0-2-0-|
2----0202--0----------|

 Chourus
"Don't drop me now i'm sinking to the underground
-----------------------|
-----------------------|
--0--2-4----0--5-4-2-0-|
2--2----2--2-2---------|

 Weird part
"Lead those sheep into the slaughter"
----------------------------------|
----------------------------------|
0-2---0-2---0-2---0-2---0-2---0-2-|
----------------------------------|

other weird thing
'you're talking about the only way out'
------------|
76------2-4-|
--75--4-----|
------------|


4. Attached at the Hip

|----------------------------------------|
|----------------------------------------|
|-0-0-0--0-0--0-0--0--0---------3-2---5--|
|-----------------------0-3-0-3-----3----|
 "You dont need to..."

|--------------------------------------|
|--------------------------------------|
|-0-0-0--0-0--0-0--0--0--------3-2--5--|
|------------------------0-3-0---------|
[ Tab from: http://www.guitartabs.cc/tabs/c/cky/infiltrate_destroy_rebuild_btab.html ]
Chorus
|--------------------------------------------------------------------|
|--------------------------------------------------------------------|
|----------3-3-3-----------------------------------------------------|
|--5-5-5-----------3-3-3---0-0-0----8-8-8-8-7-7-7-7-5-5--5-5-5-5-----|


Verse
|---------------------------------------------------------------|
|---------------------------------------------------------------|
|---------------------------------------------------------------|
|--5-5--5-5-5-5----5-5--5-5-5-5---5-5--5-5-5-5---5-5---5-5-5-5--|

|------------------------------------------------------------------|
|------------------------------------------------------------------|
|--3-3-3-3-3-2-0--3-3-3-3-3-2-0---3-3-3-3-2-0---3-3-3-3-3-2-0-0-0--|
|------------------------------------------------------------------|


5. Frenetic Amnesic

intro/verse:
F:-----------------------------------------|
C:-----------------------------------------|
G:---------3------------3---5--3--------3--|
D:5-3-5--3---3-5-3-5--3---3-------5--1----1|

fill:
F:-----------|
C:-----------|
G:--3-------5|
D:5---5-3-3--|

chorus riff1:
F:---------------------------|
C:---------------------------|
G:------------------------3--|
D:5-5-5-5-5-5-1-1-1-1-1-1---3|

chorus riff2:
F:-----------------------------|
C:-----------------------------|
G:5-5-5-5-5-3-5-7-7-7-7-8-7-5-3|
D:-----------------------------|

bridge/breakdown:
F:-------------------------|
C:-------------------------|
G:-------------3----3-5p3--|
D:5----5-0-1/3------------3|

Structure:
Intro/verse: 5x
fill:1x
Chorus1:2x
Chorus2:1x
Chorus1:1x
Intro/verse: 5x
fill:1x
Chorus1:2x
Chorus2:1x
Chorus1:3x
chorus2:1x
chorus1:1x
bridge:6x
fill:1x
Intro/verse: 6x
fill:1x

6. Shock & Terror

-------------------|
--0---0-2-4--------|
4---4-------0------|
---------------2-0-|

 Main
-----------------------|
0-0-2-0----0-2-4-------|
---------2-------0-----|
-------------------2-0-|

 Verse
------------------------------|
------0--------------0---2----|
2---2--4-0-4-2---2-----4------|
----------------------------3-|

 Chourus
-----------------|
-------0---------|
2-0-2---20---20--|
----------2----2-|


7. Plastic Plan

Intro/Verse
G|---------------------------------------------------------------------------|
D|----------2p-----------------------------2p--------------------------------|
A|-------------2p-0-2--------------2-0---0-----------------------------------|
E|-33333333-----------3-00000000-3-----3-------------------------------------|

Chorus (repeat twice)
G|---------------------------------------------------------------------------|
D|---------------------------------------------------------------------------|
A|---------------------2-------------------------------3-2----------22-------|
E|-333333333-3-5-3-5-3---0000000000000000-111111111111-----55-33-55----5(8x)-|

Bridge (Played after the small guitar solo)
G|---------------------------------------------------------------------------|
D|---------------------------------------------------------------------------|
A|--------------3-2----------22----------------------------------------------|
E|-111111111111-----55-33-55----55555555-------------------------------------|


8. Inhuman Creation Station

Intro
G|---------------------------------------------------------|
D|--350-----------350-----------350-----------350----------|
A|-5---30--------5---30--------5---30--------5---30--------|
D|-------000-000-------000-000-------000-000-------000-000-|

G|--------20--------------------------------|
D|--2320----32---350-----------350----------|
A|-3----30----3-5---30--------5---30--------|
D|--------------------000-000-------000-000-|

Verse
G|---------------------------------------------------------|
D|--350-----------350-----------350-----------350----------|
A|-5---30--------5---30--------5---30--------5---30--------|
D|-------000-000-------000-000-------000-000-------000-000-|

G|--------20--------------------------------|
D|--2320----32---350-----------350----------|
A|-3----30----3-5---30--------5---30--------|
D|--------------------000-000-------000-000-|

G|---------------------------------------------------------|
D|--350-----------350-----------350-----------350----------|
A|-5---30--------5---30--------5---30--------5---30--------|
D|-------000-000-------000-000-------000-000-------000-000-|

G|--------20-------------------------20------------------|
D|--2320----32---350-----------2320----32---350----------|
A|-3----30----3-5---30--------3----30----3-5---30--------|
D|--------------------000-000--------------------000-000-|

Pre-Chorus
G|--------------|
D|---233--------|
A|-03-----------| x8
D|------000-000-|

G|----------|
D|---23--23-|
A|-03--03---|
D|----------|

Chorus x4
G|------------------------------------|
D|------------------------------------|
A|-11111111-11111111------------------|
D|-------------------00000000-0000000-|

Post-Chorus
G|--------------|
D|---233--------|
A|-03-----------| x4
D|------000-000-|

G|----------|
D|---23--23-|
A|-03--03---|
D|----------|

Verse
Chorus x4

Bridge
G|---------------------------------|
D|---------------------------------|
A|---------------------------------|
D|-0000000-just keep hitting zeros-|

Post-Chorus


9. Sporadic Movement

--dont know--

10. Close Yet Far

G- - - - - - - - - - - - - - - - - - - - - - - - - - - - - - - - - - - -
D-  - - - - - - - - - - - - - - - - - - - - - - - - - - - - - - - - - -
A-5-5-3-3- - - - - - 5-5-3-3 - - - - -5-5-3-3 - - - - - 5-5-3-3
D-  - - - -3-3-3-3-3- - - - -3-3-3-3-3- - - - 3-3-3-3-3 - - - - 3-3-3-3-3  follow the song with that

Chorus:
G-
D-
A-5-5-5-3-3-3 - - - - - -5-5-5-3-3-3- - - - - - -5-5-5-3-3-3- - - - - - -
D- - - - - - -3-3-3-3-3- - - - - - - -3-3-3-3-3- - - - - - - -3-3-3-3-3-

DRUM SOLO PART
G-
D-
A- 1-3-5-GIVE 4 SECONDS WAIT 1-3-5 - - - - - -1-3-5 - - - - -1-3-5
D-

The End...
Comments