Cky - Halfway House Chords & Tabs

 

Halfway House Chords & Tabs

Cky Chords & Tabs

Version: 1 Type: Tab 0 ratings
1 star 2 stars 3 stars 4 stars 5 stars
comments

Halfway House Tab

   
Cky - Halfway House
Tabbed By: woodlouse
EMail: CampKillYourself123

drop d

e--------------------------------------------------------------------
b--------------------------------------------------------------------
g--------------------------------------------------------------------
d---3-3/6-6-6\3-1-------------3-3/6-6-6\3-1-------------3----------1-
a---3-----------1-------------3-----------1-------------3----------1-
d---3-----------1-6-1-1-3-2-1-3-----------1-6-1-1-3-2-1-3----------1-

e-------------------------------------------------------------------
b-------------------------------------------------------------------
g-------------------------------------------------------------------
d---------------3-----------1-------------3-3/6-6-6\3-1-------------
a---------------3-----------1-------------3-----------1-------------
d---6-1-1-3-2-1-3-----------1-6-1-1-3-2-1-3-----------1-6-1-1-3-2-1-

pre verse

e------------------------4--------------
b---------5-4-2-0-------------------4/7-
g-----4---------------6-----6---4-------  X2
d---------------------------------------
a---------------------------------------
d---6---6---------6-4---4-----4---4-----

verse
[ Tab from: http://www.guitartabs.cc/tabs/c/cky/halfway_house_tab.html ]
e-----------------------------------------
b-----------------------------------------
g----------------------------------3/5\1--  X8
d---3------------------3------------------
a---3------------------3------------------
d---3-3-6-3-6-3-6/10\6-3-5-8-5-8-5--------
 
    "sometimes i get...
 
2nd guitar-verse

e---13~-11-9-8-6-8-4-
b--------------------
g--------------------
d--------------------
a--------------------
d--------------------

then...

pre verse X2
verse X8
chorus X4:-    

e-------------------------------------------------------------------
b-------------------------------------------------------------------
g-------------------------------------------------------------------
d---6-6-6-6-2-2-2-2-6-6-6-6-2-2-2-2-6-6-6-6-2-2-2-2-6-6-6-6-3-3-3-3-
a---6-6-6-6-2-2-2-2-6-6-6-6-2-2-2-2-6-6-6-6-2-2-2-2-6-6-6-6-3-3-3-3-
d---6-6-6-6-2-2-2-2-6-6-6-6-2-2-2-2-6-6-6-6-2-2-2-2-6-6-6-6-3-3-3-3-

then:-

pre verse X2
guitar 2 plays this over the top with a hell load of chorus and wah..

e------------------------------------------------------------------13
b---12-12-12-12-12-12-12-12-11-11-11-11-11-11-11-11-12-12-12-12-12---
g--------------------------------------------------------------------
d--------------------------------------------------------------------
a--------------------------------------------------------------------
d--------------------------------------------------------------------

e---13-13-13-13--------------------------
b---------------11-11-11-11-11-11-11-11--
g----------------------------------------
d----------------------------------------
a----------------------------------------
d----------------------------------------

then verse X8 
pre verse X2 (with little b---12/17's in it)
chorus X4 
END

thats it 

GOOD SONG 

woodlouse (campKillYourself123)
Comments