Cky - Halfway House Chords & Tabs

 

Halfway House Chords & Tabs

Cky Chords & Tabs

Version: 1 Type: Bass Tab 0 ratings
1 star 2 stars 3 stars 4 stars 5 stars
comments

Halfway House Bass Tab

Intro
|-----|---------------------------------------------
|-----|---------------------------------------------
|-----|---------------------------------------------
|--3--|-----8-10-9-8--|--1--|----6-1--1-1-1--3-2-1-- 
[ Tab from: http://www.guitartabs.cc/tabs/c/cky/halfway_house_btab.html ]
This is all you do when you hear the Bellish sounding riff~ 
|-----|--------|
|-----|--------|
|-----|--------|
|--2--|----0---| 
 
Verse 
|-----|--------|
|-----|--------|
|-----|--------|
|--3--|----1---| 

Chorus
|-------------------------|
|-------------------------|
|-------------------------|
|--6----6-2---/6---6-7-7--| 
"I'm not the one with the open wound ....." 

if there's anything wrong with it email me at: emmakennard@hotmail.com
thnku sukaz
Comments