Cky - Get Out Chords & Tabs

 

Get Out Chords & Tabs

Cky Chords & Tabs

Version: 1 Type: Tab 0 ratings
1 star 2 stars 3 stars 4 stars 5 stars
comments

Get Out Tab

Guitar tunde down (Db,Gb,Db,Fb,Ab,DB)
   
   (Key)
Slide Up:/
Slide Down:\
Bend:^
Palm Mute:*
(Guitar#1)Intro Repete each x6
Db--7*--6*--5*--4*--2*--------|--7--6--5--4--2--------|
Ab--7*--6*--5*--4*--2*--------|--7--6--5--4--2--------|
Fb--7*--6*--5*--4*--2*--------|--7--6--5--4--2--------|
Db--7*--6*--5*--4*--2*--(x4)--|--7--6--5--4--2--(x8)--|
Gb--7*--6*--5*--4*--2*--------|--7--6--5--4--2--------|
Db--5*--4*--3*--2*--0*--------|--5--4--3--2--0--------|
(Guitar#2)
Db--7--6--5--4--2--|
Ab--7--6--5--4--2--|
Fb--7--6--5--4--2--|
Db--7--6--5--4--2--|(x8)
Gb--7--6--5--4--2--|
Db--5--4--3--2--0--|
(Guitar#1)
Db------------4-------4--|
Ab------------4-------4--|
Fb------------4-------4--|
Db------------4-------4--|(x8)
Gb--0-2-0-2-0-4-0-2-0-4--|
Db--0-2-0-2-0-2-0-2-0-2--|
(Guitar#2)
Db-----------------------|
Ab-----------------------|
Fb-----------------------|
Db-----------------------|(x8)
Ab--0-2-0-2-0-2-0-2-0-2--|
Db--0-2-0-2-0-2-0-2-0-2--|
(Guitar#1)
Db------------3-------3--|
Ab------------3-------3--|
Fb------------3-------3--|
Db------------3-------3--|(x8)
Ab--0-1-0-1-0-3-0-2-0-3--|
Db--0-1-0-1-0-1-0-2-0-1--|
(Guitar#2)
Db-----------------------|
Ab-----------------------|
Fb-----------------------|
Db-----------------------|(x8)
Ab--0-1-0-1-0-1-0-1-0-1--|
Db--0-1-0-1-0-1-0-1-0-1--|
(Guitar#1)
Db--7*--6*--3*--4*--2*--|
Ab--7*--6*--3*--4*--2*--|
Fb--7*--6*--3*--4*--2*--|
Db--7*--6*--3*--4*--2*--|(x8)
Ab--7*--6*--3*--4*--2*--|
Db--5*--4*--5*--2*--0*--|
(Guitar#1)Solo
Db---------------------------------------|
Ab---------------------------------------|
Fb--57^--75------------------------------|
Dd--57---75^/-----------9^--7--5^--------|
Ab--57---------53^/--7-------------5--3--|
Db---------------------------------------|
(Guitar#2)During Solo
Db--9--6--5--4--5---2---7--6--|
Ab--9--6--5--4--5---2---7--6--|
Fb--9--6--5--4--5---2---7--6--|
Db--9--6--5--4--5---2---7--6--|
Ab--7--8--7--6--3^--4^--9--8^-|
Db--X--X--X--X--X---X---X--X--|Let ring after solo
[ Tab from: http://www.guitartabs.cc/tabs/c/cky/get_out_tab.html ]
Comments