Cky - Frenetic Amnesic Chords & Tabs

 

Frenetic Amnesic Chords & Tabs

Cky Chords & Tabs

Version: 1 Type: Tab 0 ratings
1 star 2 stars 3 stars 4 stars 5 stars
comments

Frenetic Amnesic Tab

Band: cKy
Song: Frentic Amnesic (Intro)
Album: Infiltrate.Destroy.Rebuild
Tabbed By: Matt Schnitty
Tuning: 1/2 Step Down
[ Tab from: http://www.guitartabs.cc/tabs/c/cky/frenetic_amnesic_tab.html ]
eb|--------------------------------------------------------------------------------------|
Bb|--------------------------------------------------------------------------------------|
Gb|--------------------------------------------------------------------------------------|
Db|--------------------------------------------------------------------------------------|
Ab|----------6-------6-----6-4-2-2-(2x)---------4-------4-----4-6-4-2-(1x)---------------|
Eb|--4-4-4-4---4-4-4---4-4--------------2-2-2-2---2-2-2---2-2----------------------------|


eb|--------------------------------------------------------------------------------------|
Bb|--------------------------------------------------------------------------------------|
Gb|--------------------------------------------------------------------------------------|
Db|--------------------------------------------------------------------------------------|
Ab|----------2-------2-----4-6-4-2-(1x)--------------------------------------------------|
Eb|--0-0-0-0---0-0-0---0-0---------------------------------------------------------------|

If anyone knows the rest of this song make a tab for it.
Comments