Cky - Frenetic Amnesic Chords & Tabs

 

Frenetic Amnesic Chords & Tabs

Cky Chords & Tabs

Version: 2 Type: Bass Tab 0 ratings
1 star 2 stars 3 stars 4 stars 5 stars
comments

Frenetic Amnesic Bass Tab

   
band   - cky
song   - frenetic amnesic
album  - infiltrate-destroy-rebuild
tabber - jaymnhhngbfs

Tuning: Full step down (DGCF)

intro/verse:
F:-----------------------------------------|
C:-----------------------------------------|
G:---------3------------3---5--3--------3--|
D:5-3-5--3---3-5-3-5--3---3-------5--1----1|

fill:
F:-----------|
C:-----------|
G:--3-------5|
D:5---5-3-3--|
[ Tab from: http://www.guitartabs.cc/tabs/c/cky/frenetic_amnesic_btab_ver_2.html ]
chorus riff1:
F:---------------------------|
C:---------------------------|
G:------------------------3--|
D:5-5-5-5-5-5-1-1-1-1-1-1---3|

chorus riff2:
F:-----------------------------|
C:-----------------------------|
G:5-5-5-5-5-3-5-7-7-7-7-8-7-5-3|
D:-----------------------------|

bridge/breakdown:
F:-------------------------|
C:-------------------------|
G:-------------3----3-5p3--|
D:5----5-0-1/3------------3|

Structure:
Intro/verse: 5x
fill:1x
Chorus1:2x
Chorus2:1x
Chorus1:1x
Intro/verse: 5x
fill:1x
Chorus1:2x
Chorus2:1x
Chorus1:3x
chorus2:1x
chorus1:1x
bridge:6x
fill:1x
Intro/verse: 6x
fill:1x
Comments