Cky - Frenetic Amnesic Chords & Tabs

 

Frenetic Amnesic Chords & Tabs

Cky Chords & Tabs

Version: 1 Type: Bass Tab 0 ratings
1 star 2 stars 3 stars 4 stars 5 stars
comments

Frenetic Amnesic Bass Tab

Album: Infiltrate.Destroy.Rebuild
Standard Tuning

(PS: This Tab is not mine, It was written by AntigraM, his site is at
www.ckybasstabs.vze.com..... Also, I dont play bass, so excuse me if some
of the things are out of order :s)

Verses:

|-----------------------------------------------------------
|-----------------------------------------------------------
|-----------------------------------------------------------
|--4-4-2-2-4-4----2-2-4-4-2-2-4-4--2-2-4-4-2---9-7-4-0--7---

   (a blackout, they peel him off of the floor, etc...)


Prechorus/Chorus:

[ Tab from: http://www.guitartabs.cc/tabs/c/cky/frenetic_amnesic_btab.html ]
|-----------------------------------------------------------
|-----------------------------------------------------------
|-----------------------------------------------------------
|--4-4-2-2-4-4----2-2-4-4-2-2-4-4--2-2-4-4-2---9-7-4-0--7---

   (everybodys after me, you could be the enemy, etc...)

|-----------------------------------------------------------
|-----------------------------------------------------------
|-----------------------------------------------------------
|--4-4-2-2-4-4----2-2-4-4-2-2-4-4--2-2-4-4-2---9-7-4-0--7---
    
   (you seem to be to happy to reveal yourself, etc...)


Bridge:

|-----------------------------
|-----------------------------
|-----------------------------
|--5-------1------1-2-4---8---

Rhythm is pretty weird in this area, listen to the CD to find it.


Thats the song, have fun.
Comments