Cky - Flesh Into Gear Chords & Tabs

 

Flesh Into Gear Chords & Tabs

Cky Chords & Tabs

Version: 7 Type: Tab

Flesh Into Gear Tab

Played tuned down 1/2 step, denelectro black licorice pedal

flesh into gear, written by deron miller (cky)
tabbed by greco

\=slide down  ~=vibrato   p=pull off    h=hammer on

this is every part of the song, figure out how to peice it to together,
how many times to play each part, and the strumming by listening to it

-------------------main riff-------------------------------
-----------------------------------------------------------
-------------------4--66666-66-6p4---------2\1-------------
-------------------2--44444-44-----4-4-2h4-----------------
22222-22---------------------------------------------------
00000-00-4p-2p-4p------------------------------------------


-------------------chorus----------------------------------
-----------------------------------------------------------
-----------------------------------------------------------
-----------------------------------------------------------
77777777777-9999-77-6666666666-4444-22---------------------
55555555555-7777-55-4444444444-2222-00---------------------

-------------------chorus into solo------------------------
-----------------------------------------------------------
-----------------------------------------------------------
---------------------------------------6-6-----------------
77777777777-9999-77-6666666666666666---4-4-----------------
55555555555-7777-55-4444444444444444-----------------------

-----------------------------------------------------------
-----------------------------------------------------------
-------------------------------------4-6-------------------
6-4---4---4-6-4---4-4--6-4---4---4-6-----6-6---------------
----7---7-------7-2-2------7---7---------4-4---------------
-----------------------------------------------------------

-----------------------------------------------------------
-----------------------------------------------------------
-----------------------------------------------------------
6-4---4---4-6-4---4-4------------------4---2-2-------------
----7---7-------7-2-2------4-2-----------4-0-0-------------
-----------------------0-4-----4-0-2h4---------------------
[ Tab from: http://www.guitartabs.cc/tabs/c/cky/flesh_into_gear_tab_ver_7.html ]
-----------------------------------------------------------
-----------------------------------------------------------
-------------------------------------4-6-------------------
6-4---4---4-6-4---4-4--6-4---4---4-6-----6-6---------------
----7---7-------7-2-2------7---7---------4-4---------------
-----------------------------------------------------------



-----------------------------------------------------------
-----------------------------------------------------------
-------------------------------------4-6-------------------
6-4---4---4-6-4---4-4--6-4---4---4-6-----6-6---------------
----7---7-------7-2-2------7---7---------4-4---------------
-----------------------------------------------------------

-----------------------------------------------------------
-----------------------------------------------------------
-----------------------------------------------------------
6-4---4---4-6-4---4-4------------------4---2-2-------------
----7---7-------7-2-2------4-2-----------4-0-0-------------
-----------------------0-4-----4-0-2h4---------------------

-----------------------------------------------------------
-----------------------------------------------------------
-------------------------------------4-6-------------------
6-4---4---4-6-4---4-4--6-4---4---4-6-----6-6---------------
----7---7-------7-2-2------7---7---------4-4---------------
-----------------------------------------------------------

-----------------------------------------------------------
-----------------------------------------------------------
-------------------------------------4-6~-4----------------
6-4---4---4-6-4---4-4--6-4---4---4-6--------6~-2-4---------
---7---7-------7-2-2------7---7--------------------4-2-----
-------------------------------------------------------4-2-

-------------------chorus----------------------------------
-----------------------------------------------------------
-----------------------------------------------------------
-----------------------------------------------------------
77777777777-9999-77-6666666666-4444-22---------------------
55555555555-7777-55-4444444444-2222-00---------------------


flesh into fuck