Cky - Flesh Into Gear Sinking Fast Chords & Tabs

 

Flesh Into Gear Sinking Fast Chords & Tabs

Cky Chords & Tabs

Version: 1 Type: Tab 0 ratings
1 star 2 stars 3 stars 4 stars 5 stars
comments

Flesh Into Gear Sinking Fast Tab

this song was originally called sinking fast 
but then they redid it for cky3

------------------------------------------------------------------------------
------------------------------------------------------------------------------
------------------------------------------------------------------------------
----------------6-6-6-6-6-6-6--7p6--------7p6---------------------------------
-2-2-2-2------2-4-4-4-4-4-4-4-----77--4h7-------------------------------------
-0-0-0-0--2h4-----------------------------------------------------------------
 This is the Intro/Verse.                                                     

------------------------------------------------------------------------------
------------------------------------------------------------------------------
------------------------------------------------------------------------------
-7-7-7-7-7-7--9-7---6-6-6-6-6-6--4-2------------------------------------------
-7-7-7-7-7-7--9-7---6-6-6-6-6-6--4-2------------------------------------------
-5-5-5-5-5-5--7-5---4-4-4-4-4-4--2-0------------------------------------------
 This is the Chorus.                                                          
[ Tab from: http://www.guitartabs.cc/tabs/c/cky/flesh_into_gear_sinking_fast_tab.html ]
------------------------------------------------------------------------------
------------------------------------------------------------------------------
-------------------------------------------------4h6--------------------------
-6-6-4h6p4---4---4h6-4-----4-4---4h6p4---4---4h6-----6-6--4h6p4--4---4h6-4----
-4-4-------7---7-------7---2-2---------7---7---------4-4-------7---7-------7--
------------------------------------------------------------------------------
                                                                              

------------------------------------------------------------------------------
------------------------------------------------------------------------------
--------------------------------------------------------------------4h6-------
-4-4-----------------2-2--4h6p4---4---4h6-4----4-4--4h6p4---4---4h6-----------
-2-2-----------------0-0--------7---7-------7--2-2--------7---7---------------
------------------------------------------------------------------------------
          ^sorry i don't know one little part

Solo - Do this part twice and then play...                                   

------------------------------------------------------------------------------
------------------------------------------------------------------------------
------------------------------------------------4h6v-4------------------------
-6-6--4h6p4---4---4h6-4----4-4--4h6p4---4---4h6--------6-2h4------------------
-4-4--------7---7-------7--2-2--------7---7------------------4p2--------------
-----------------------------------------------------------------4p2----------
 after this go to the chorus.
Comments