Cky - Fat Fuck Chords & Tabs

 

Fat Fuck Chords & Tabs

Cky Chords & Tabs

Version: 2 Type: Tab 0 ratings
1 star 2 stars 3 stars 4 stars 5 stars
comments

Fat Fuck Tab

   
"Fat Fuck" by cKy
From the "cKy Volume Two" album.
(I assure you, this IS the 100% accurate version!)
Tabbed by: The Apocalyzard
Email: JRocket859@msn.com

Now, before I begin this tab, I will give you instructions on how
this sound was made to sound the way it is. First off, Deron Miller,
the only guitarist playing in this song, uses an Octaver. Basically,
what it does is lower your guitar's tone, making it sound as if it were
tuned 12 steps lower, like a bass. You WON'T be able to perfectly emulate
the song without an Octaver, but worry not. It will sound correct anyway.
You'll immediately realize this if you attempt playing it without one.
Second of all, all the other tabs say this song is in Drop-D tuning. Wrong.
This song is in DROP-B tuning. That means you have to lower your Low E string
(the top string) 2 and a half steps down. To do this, fret 10 on the top string
and pick the A string. Adjust the Low E string's tuning until it matches perfectly
with the A string's sound. And there you have it. Instant Drop-B tuning.
Now, the perfectly accurate tab.

Tuning: B A D G B e

Riff One - Main Riff
e|---------------------------------------------------------------------------|
B|---------------------------------------------------------------------------|
G|---------------------------------------------------------------------------|
D|---------------------------------------------------------------------------|
A|-5-2--5-4h2-0-2--5-5-5-------5-2--5-4h2-0-2--7-7-7-------------------------|
B|-----------------3-3-3-----------------------3-3-3-------------------------|

[ Tab from: http://www.guitartabs.cc/tabs/c/cky/fat_fuck_tab_ver_2.html ]
Riff Two - Chorus
e|---------------------------------------------------------------------------|
B|---------------------------------------------------------------------------|
G|---------------------------------------------------------------------------|
D|-----------------------------2h4p2-0---------------------------------------|
A|---------------------------0-----------------------------------------------|
B|---0-4-5-7-0-4-5-7-0-4-5-7-------------------------------------------------|
P.M  . . . . . . . . . . . .
(Do this twice)

Riff Three - Post-Chorus Fill
e|---------------------------------------------------------------------------|
B|---------------------------------------------------------------------------|
G|---------------------------------------------------------------------------|
D|-------------2h4p2-0-------------------------------------------------------|
A|---2-0-2h4-0---------------------------------------------------------------|
B|-0-------------------------------------------------------------------------|
(Do this four times)

Riff Four - Outro
e|---------------------------------------------------------------------------|
B|---------------------------------------------------------------------------|
G|---------------------------------------------------------------------------|
D|---------------------------------------------------------------------------|
A|-5-5-5-5-5-5-5-5-------2-2-2-2-2-2-2-2-------------------------------------|
B|-3-3-3-3-3-3-3-3-...---0-0-0-0-0-0-0-0-...---------------------------------|
Palm Mute this for a bit. I can't get an exact count of how many times you're
supposed to strum it. After a bit, switch to the next chord, and play it until
the end of the song.

SONG STRUCTURE:
Main Riff x8
Chorus
Post-Chorus Fill
Main Riff x6
Chorus
Post-Chorus Fill
Outro

And, I guess that's it. I doubt anyone will see this, though. If not, I pat myself
on the back. I assure you, this is correct, completely.

| /  slide up
| \  slide down
| h  hammer-on
| p  pull-off
| ~  vibrato
| +  harmonic
| x  Mute note
===============================================================================
Comments